Oops, an error
Loading. Please wait.

Beautiful Mourning Tab

version 1
version 1

Whole song

Interactive

15,821 views 12 this week
1 commentread comment
1 2 3 4 5
x 6
add to favorites
launch autoscroll
font size
0
reset
how to read this tab
guitar tuner
backing track
0:00
0:00
Autoscroll
slow
fast
+/-
esc
set tempo
stop
Author
Tuning
B F# B E G# C#
Machine Head / The Blackening / Beautiful Mourning
Drop B: B, F#, B, E, G#, C#

[Intro]
C#|Guitar 1--|------------------------------|---------------------------------|
G#|----------|------------------------------|---------------------------------|
E |----------|------------------------------|---------------------------------|
B |----------|-00002-002-00002-003-002-0031-|-00002-002-00002-003-005h6-005h6-|
F#|-///\\\\\-|------------------------------|---------------------------------|
B |----------|------------------------------|---------------------------------|
|
C#|Guitar 2--|------------------------------|---------------------------------|
G#|----------|------------------------------|---------------------------------|
E |----------|--------pickscrapes-----------|---------------------------------|
B |----------|------------------------------|---------------------005h6-005h6-|
F#|----------|--------**\---**\---**\\\\\\\-|---**///////---------------------|
B |----------|------------------------------|---------------------------------|

C#|Guitar 1----------------------|----------------------------------|
G#|------------------------------|----------------------------------|
E |------------------------------|----------------------5h7h8-5h7h8-|
B |-00002-002-00002-003-002-0031-|-00002-002-00002-003-0------------|
F#|------------------------------|----------------------------------|
B |------------------------------|----------------------------------|
|
C#|Guitar 2----------------------|----------------------------------|
G#|------------------------------|----------------------------------|
E |------------------------------|----------------------------------|
B |-00002-002-00002-003-002-0031-|-00002-002-00002-003-0------------|
F#|------------------------------|----------------------------------|
B |------------------------------|----------------------------------|

C#|Both Guitars------------------|---------------------------------|
G#|------------------------------|---------------------------------|
E |------------------------------|---------------------------------|
B |------------------------------|---------------------------------|
F#|------------------------------|---------------------------------|
B |-00002-002-00002-003-002-0031-|-00002-002-00002-003-005h6-005h6-|

C#|Both Guitars------------------|-------------------------------|
G#|------------------------------|-------------------------------|
E |------------------------------|-------------------------------|
B |------------------------------|-----------------3-----3-------|
F#|------------------------------|-----------------1-----1-----1-|
B |-00002-002-00002-003-002-0031-|-00002-002-00002---0-0---0-0-1-|
                                                             . .   . .
Pre-Verse
C#|Guitar 1-----------------------|------------------------------------|
G#|-------------------------------|------------------------------------|
E |-------------------------------|----------------------8-8-7-7-------|
B |-------------------------------|----------------------6-6-5-5-8-8-8-|
F#|-------3h5-----3h5-----3h5-----|---------3h5-----3h5----------6-6-6-|
B |-0-0-0-----0-0-----0-0-----0-0-|-1-0-0-0-----0-0--------------------|
  | . . .     . .     . .     . .     . . .     . .

C#|Guitar 2-----------------------|------------------------------------|
G#|-------------------------------|------------------------------------|
E |-------------------------------|----------------------8-8-7-7-------|
B |-------------------------------|----------------------6-6-5-5-8-8-8-|
F#|-0-----------------------------|-(0)--------------------------6-6-6-|
B |-0-----------------------------|-(0)--------------------------------|

[Verse]
C#|Guitar 1-----------------------|------------------------------------|
G#|-------------------------------|------------------------------------|
E |-------------------------------|----------------------8-8-7-7-------|
B |-------------------------------|----------------------6-6-5-5-8-8-8-|
F#|-------3h5-------------3h5-----|---------3h5------------------6-6-6-|
B |-0-0-0-----0-0-1-0-0-0-----0-0-|-1-0-0-0-----0-0-1-0----------------|
  | . . .     . .   . . .     . .     . . .     . .   .

C#|Guitar 2-----------------------|------------------------------------|
G#|-------------------------------|------------------------------------|
E |-------------------------------|----------------------8-8-7-7-------|
B |-------------------------------|----------------------6-6-5-5-8-8-8-|
F#|-------------------------------|------------------------------6-6-6-|
B |-0-0-0---------1-0-0-0---------|---0-0-0---------1-0----------------|
  . . .           . . .             . . .           .

C#|Guitar 1-----------------------|---------------------11p10------------|
G#|-------------------------------|----------------------------12p11-10^-|
E |-------------------------------|---------------------------0----------|
B |-------------------------------|--------------------------------------|
F#|-------3h5-------------3h5-----|---------3h5--------------------------|
B |-0-0-0-----0-0-1-0-0-0-----0-0-|-1-0-0-0-----0-0-1-0------------------|
| . . .     . .   . . .     . .     . . .     . .   .           .

C#|Guitar 2-----------------------|---------------------11p10------------|
G#|-------------------------------|----------------------------12p11-10^-|
E |-------------------------------|---------------------------0----------|
B |-------------------------------|--------------------------------------|
F#|-------------------------------|--------------------------------------|
B |-0-0-0---------1-0-0-0---------|---0-0-0---------1-0------------------|
  . . .           . . .             . . .           .           .

C#|Both Guitars-------------------|------------------------------------|
G#|-------------------------------|------------------------------------|
E |-------------------------------|----------------------8-8-7-7-------|
B |-------------------------------|----------------------6-6-5-5-8-8-8-|
F#|-------3h5-----3h5-----3h5-----|---------3h5-----3h5----------6-6-6-|
B |-0-0-0-----0-0-----0-0-----0-0-|-1-0-0-0-----0-0--------------------|
  . . .     . .     . .     . .     . . .     . .

C#|Both Guitars-------------------|----------------------------------|
G#|-------------------------------|----------------------------------|
E |-------------------------------|----------------------------------|
B |-------------------------------|----------------------------------|
F#|-------3h5-----3h5-----3h5-----|---------3h5-----3h5—6p5----------|
B |-0-0-0-----0-0-----0-0-----0-0-|-1-0-0-0-----0-0---------0-9p8-8^-|
  . . .     . .     . .     . .     . . .     . .           .

  [Chorus]
C#|Both Guitars------------------|----------------------|
G#|------------------------------|----------------------|
E |------------------------------|----------------------|
B |------------------------------|-8-8-8-8-7-7----------|
F#|-8/10-10-10-10-9-9-9-9h10p9-9-|-------------8--0-1---|
B |------------------------------|----------------0-1---|

C#|Both Guitars---------------|
G#|---------nh----------nh-nh-|
E |---------5--------------5--| x2
B |----------------------5----|
F#|-1---------1~--------------|
B |-1-0-0-0---1~-0-0-0-0------|
    . . .      . . . .

C#|Both Guitars------------------|----------------------------------------------|
G#|------------------------------|----------------------------------------------|
E |------------------------------|----------------------------------------------|
B |------------------------------|-8-8-8-8-7-7----------------------------------|
F#|-8/10-10-10-10-9-9-9-9h10p9-9-|-------------8-8-8-8/10-10-10-10-9-9-9-9h10p9-|
B |------------------------------|----------------------------------------------|

[Bridge]
C#|Guitar 1--------------|---------------------10-|-------------|
G#|----------------6h8h9-|-------------8h10h11----|-------------|
E |-----------5h7h8------|-------7h9h10-----------|-------------|
B |------5h7h8-----------|-7h9h10-----------------|-------------|
F#|-5h7h8----------------|------------------------|-------------|
B |----------------------|------------------------|-------------|
|
C#|Guitar 2--------------|------------------------|-------------|
G#|----------------------|------------------------|-------------|
E |----------------------|------------------------|-pickscrapes-|
B |----------------------|------------------------|-------------|
F#|----------------------|------------------------|------**///--|
B |----------------------|------------------------|-**\\--------|

Verse as before
Chorus as before

[Interlude]
C#|Guitar 1---------------------|--------------------------------|
G#|-----------------------------|--------------------------------|
E |-----------------------------|--------------------------------|
B |-----------------------------|--------------------------------|
F#|-------------0-------------0-|-------------0------------1-4-3-|
B |-12p10p0h12~-0-12p10p0h12~-0-|-12p10p0h12~-0-12p10p0h12-1-4-3-|
|
C#|Guitar 2---------------------|--------------------------------|
G#|-----------------------------|--------------------------------|
E |-----------------------------|--------------------------------|
B |-----------------------------|--------------------------------|
F#|---------------------------0-|-------------0------------1-4-3-|
B |---------------------------0-|-12p10p0h12~-0-12p10p0h12-1-4-3-|

C#|Both Guitars-----------------|--------------------------------|
G#|-----------------------------|--------------------------------|
E |-----------------------------|--------------------------------|
B |-----------------------------|--------------------------------|
F#|-------------0-------------0-|------------------------1~------|
B |-12p10p0h12~-0-12p10p0h12~-0-|-5p3p0h5~------5p3p0h5~-1~------|

C#|Both Guitars-----------------|--------------------------------|
G#|-----------------------------|--------------------------------|
E |-----------------------------|--------------------------------|
B |-----------------------------|--------------------------------|
F#|-------------0-------------0-|-------------0------------1-4-3-|
B |-12p10p0h12~-0-12p10p0h12~-0-|-12p10p0h12~-0-12p10p0h12-1-4-3-|

C#|Both Guitars-----------------|--------------------------------|
G#|-----------------------------|--------------------------------|
E |-----------------------------|--------------------------------|
B |-----------------------------|--------------------------------|
F#|-------------0-------------0-|------------------------1~------|
B |-12p10p0h12~-0-12p10p0h12~-0-|-5p3p0h5~------5p3p0h5~-1~------|

  Harmony
C#|Both Guitars-----------------------------|-----------------------------------------|
G#|-----------------------------------------|-----------------------------------------|
E |-----------------------------------------|-----------------------------------------| x2
B |-8-8-8-8-8-8-8-8-12-12-13-13-12-12-10-10-|-7-7-7-7-7-7-7-7-12-12-13-13-12-12-10-10-|
F#|-----------------------------------------|-----------------------------------------|
B |-----------------------------------------|-----------------------------------------|

C#|Guitar 1---------------------------------|-----------------------------------------|
G#|-111111111111111115-15-16-16-15-15-13-13-|-101010101010101015-15-16-16-15-15-13-13-|
E |-----------------------------------------|-----------------------------------------|
B |-----------------------------------------|-----------------------------------------|
F#|-----------------------------------------|-----------------------------------------|
B |-----------------------------------------|-----------------------------------------|

                                                                                   x2
C#|Guitar 2---------------------------------|-----------------------------------------|
G#|-----------------------------------------|-----------------------------------------|
E |-----------------------------------------|-----------------------------------------|
B |-8-8-8-8-8-8-8-8-12-12-13-13-12-12-10-10-|-7-7-7-7-7-7-7-7-12-12-13-13-12-12-10-10-|
F#|-----------------------------------------|-----------------------------------------|
B |-----------------------------------------|-----------------------------------------|

Interlude as before

  Pre-Solo
C#|Both Guitars-|-------------|
G#|-------------|-------------|
E |-------------|-pickscrapes-|
B |-------------|-------------|
F#|-5---6-8-9-5-|-------------|
B |-5---6-8-9-5-|---**\\\\\\--|

  Solo (the lead isn't right, its just improvised cus the real deal is way too fast for me 
  even try n think bout tabbing)
C#|Guitar 1------------------------------|-----------------------------------------------|
G#|------------------15------------------|------------------------------15---------------|
E |--------------------------------------|-----------------15p14----------15p14----------|
B |-tr///////12tr==b----12tr==10tr=12tr--|---------12h14h15-----17p15p14-------15p14-17b-|
F#|--------------------------------------|-12h14h15--------------------------------------|
B |--------------------------------------|-----------------------------------------------|
|
C#|Guitar 2------------------------------|-----------------------------------------------|
G#|--------------------------------------|-----------------------------------------------|
E |--------------------------------------|-----------------------------------------------|
B |--------------------------------------|-----------------------------------------------|
F#|--------------------------------------|-----------------------------------------------|
B |-6-0-5-55-6-0-5-55-6-0-5-55-6-0-8-0-9-|-6-0-5-55-6-0-5-55-6-0-5-55-3-0-2-0-1----------|
    .        .        .        .   .       .        .        .        .   .

C#|Guitar 1------------------------------|-21-----21-----21-21p19p18------------------------|
G#|------------------15------------------|---17h19--17h19-----------19p18-------------------|
E |--------------------------------------|-------------------------------20p19p17-----18h19-|
B |-tr///////12tr==b----12tr==10tr=12tr--|---------------------------------------19p17------|
F#|--------------------------------------|--------------------------------------------------|
B |--------------------------------------|--------------------------------------------------|

C#|Guitar 2------------------------------|--------------------------------------------------|
G#|--------------------------------------|--------------------------------------------------|
E |--------------------------------------|--------------------------------------------------|
B |--------------------------------------|--------------------------------------------------|
F#|--------------------------------------|--------------------------------------------------|
B |-6-0-5-55-6-0-5-55-6-0-5-55-6-0-8-0-9-|-6-0-5-55-6-0-5-55-6-0-5-55-3-0-2-0-1-------------|
    .        .        .        .   .       .        .        .        .   .

  Post-Solo
C#|Guitar 1----------------------|---------------------------------|
G#|-19~~~~~~~~~~~~~~~~~~~~~~~~~~-|-(19)~~~~~~~~~~~~~~~~~~~~~~~~~~~-|
E |------------------------------|---------------------------------|
B |------------------------------|---------------------------------|
F#|------------------------------|---------------------------------|
B |------------------------------|---------------------------------|
|
C#|Guitar 2----------------------|---------------------------------|
G#|------------------------------|---------------------------------|
E |------------------------------|---------------------------------|
B |-00002-002-00002-003-002-0031-|-00002-002-00002-003-005h6-005h6-|
F#|------------------------------|---------------------------------|
B |------------------------------|---------------------------------|

C#|Guitar 1----------------------|----------------------------------|
G#|-22~~~~~~~~~~~~~~~~~~~~~~~~~~-|-(22b)~~~~~~~~~~~~~~~~~~~~~~~(24)-|
E |------------------------------|----------------------------------|
B |------------------------------|----------------------------------|
F#|------------------------------|----------------------------------|
B |------------------------------|----------------------------------|
|
C#|Guitar 2----------------------|-----------------11p10------------|
G#|------------------------------|------------------------12p11-10^-|
E |------------------------------|-----------------------0----------|
B |-00002-002-00002-003-002-0031-|-00002-002-00002------------------|
F#|------------------------------|----------------------------------|
B |------------------------------|----------------------------------|

[Verse]
C#|Both Guitars-------------------|------------------------------------|
G#|-------------------------------|------------------------------------|
E |-------------------------------|----------------------8-8-7-7-------|
B |-------------------------------|----------------------6-6-5-5-8-8-8-|
F#|-------3h5-----3h5-----3h5-----|---------3h5-----3h5----------6-6-6-|
B |-0-0-0-----0-0-----0-0-----0-0-|-1-0-0-0-----0-0--------------------|
  . . .     . .     . .     . .     . . .     . .

C#|Both Guitars-------------------|----------------------------------|
G#|-------------------------------|----------------------------------|
E |-------------------------------|----------------------------------|
B |-------------------------------|----------------------------------|
F#|-------3h5-----3h5-----3h5-----|---------3h5-----3h5—6p5----------|
B |-0-0-0-----0-0-----0-0-----0-0-|-1-0-0-0-----0-0---------0-9p8-8^-|
  . . .     . .     . .     . .     . . .     . .           .

  [Chorus]
C#|Both Guitars------------------------|----------------------------|
G#|------------------------------------|----------------------------|
E |------------------------------------|----------------------------|
B |------------------------------------|---8-8--8--8-7--------------|
F#|-8-10-10--10--10-10--10-10--9-9-9-9-|-9-------------8-8--8-8-8-8-|
B |------------------------------------|----------------------------|

C#|Both Guitars--------------------|---------------------------------|
G#|--------------------------------|---------------------------------|
E |--------------------------------|---------------------------------|
B |--------------------------------|---------------------------------|
F#|-8-10-10--10--10-9--9-9--9h10p9-|-9-12--12-12--12-10--------------|
B |--------------------------------|--------------------12-12--12-13-|

C#|Guitar 1---------------------------------|----------------------------------------|
G#|-----------------------------------------|----11-11--11--11-10--------------------|
E |-10-12-12--12--12-12--12-12--11-11-11-11-|-11------------------10-10--10-10-10-10-|
B |-----------------------------------------|----------------------------------------|
F#|-----------------------------------------|----------------------------------------|
B |-----------------------------------------|----------------------------------------|
|
C#|Guitar 2---------------------------------|----------------------------------------|
G#|-----------------------------------------|----------------------------------------|
E |-----------------------------------------|----------------------------------------|
B |-----------------------------------------|-----8--8---8---8--7--------------------|
F#|--8-10-10--10--10-10--10-10---9--9--9--9-|--9-------------------8--8---8--8--8--8-|
B |-----------------------------------------|----------------------------------------|

C#|Guitar 1-----------------------------|--------------------|
G#|-------------------------------------|--------------------|
E |-10-12-12--12--12-11--11-11—11h12p11-|-11-14--------------|
B |-------------------------------------|--------12-12h13p12-|
F#|-------------------------------------|--------------------|
B |-------------------------------------|--------------------|
|
C#|Guitar 2-----------------------------|--------------------|
G#|-------------------------------------|--------------------|
E |-------------------------------------|--------------------|
B |-------------------------------------|--------------------|
F#|--8-10-10--10--10--9---9--9---9h10p9-|--9-12--------------|
B |-------------------------------------|--------12-12h13p12-|

[Outro]
C#|Guitar 1---------------------------------|
G#|-----------------------------------------|
E |-----------------------------------------|
B |-10-12-13-12--10-12-13-12--10-12-13--12~-|
F#|-----------------------------------------|
B |-----------------------------------------|
|
C#|Guitar 2---------------------------------|
G#|-----------------------------------------|
E |-----------------------------------------|
B |-----------------------------------------|
F#|-----------------------------------------|
B |-10-12-13-12--10-12-13-12--10-12-13--12~-|

its fairly accurate methinx... for my frst tab.
i'll let u figure out the solo yourselves =P

************************************

| h    Hammer-on
| .    Staccato
| (n)  Ghost note
| p    Pull-off
| /    Slide up
| ~    Vibrato
| b    Bend
| tr   Trill

************************************
Suggest correction
comments
print report bad tab
1 comment total.
0 reply
metalhead983877 339 Sep 23, 2015 01:53 PM

Lack of accuracy. Clearly wrong. The tab is nowhere near close from how the original song is actually played, it's pretty much a big mess.

guest
You may want to rate the tab now too:
select rating
Wanna post a correction for this tab? Suggest correction