Oops, an error
Loading. Please wait.

Bulldozer Tab

version 1
version 1

Whole song

Interactive

15,154 views 6 this week
6 commentsread comments
1 2 3 4 5
x 6
add to favorites
launch autoscroll
font size
0
reset
how to read this tab
guitar tuner
Autoscroll
slow
fast
+/-
esc
set tempo
stop
Help us to improve Ultimate-Guitar.com Take our survey!
×
Author
----------------------------------------------------------------
	     SONG: Bulldozer
	     BAND: Machine Head
	    ALBUM: Supercharger
   TRANSCRIBED BY: Chris Frazier (btabmaster@hotmail.com)
	     DATE: 09-03-2K1
----------------------------------------------------------------

	TUNING: Drop D and down 1 and 1/2 steps (B F# B E G# C#)

     Riff 1:
    C#|------------------------------------------|
    G#|------------------------------------------|
    E |-8-7---------------------8-----8-----8----|
    B |-8-7-0-0-0-0-0-0-0-0-0-0-8-0-0-8-0-0-8-0--|
    F#|-6-5-0-0-0-0-0-0-0-0-0-0-6-0-0-6-0-0-6-0--|
    B |-----0-0-0-0-0-0-0-0-0-0---0-0---0-0---0--|
     PM - - - - - - - - - - - - - - - - - - - -

     Riff 2:
    C#|------------------------------------------|
    G#|------------------------------------------|
    E |-8-7--------------------------------------| last time, don't play the
    B |-8-7-0-0-0-0-0-0-0-0-0-0-1-----3----(1)---| last (1) and hold the 3
    F#|-6-5-0-0-0-0-0-0-0-0-0-0-1-----3----(1)---|
    B |-----0-0-0-0-0-0-0-0-0-0-1-----3----(1)---|
     PM - - - - - - - - - - - - -

     Riff 3: (flanger)
    C#|----------------------------------------|
    G#|----------------------------------------|
    E |----------------------------------------|
    B |-0-----1-1-1-1-0-----3--1--0--1--0------|
    F#|-0-----1-1-1-1-0-----3--1--0--1--0------|
    B |-0-----1-1-1-1-0-----3--1--0--1--0------|

     Riff 4: (clean)
    C#|--------------------------------|
    G#|--------------------------------|
    E |--------------------------------|
    B |--------------------------------|
    F#|--------------------------------|
    B |-3-1-0-1-0--3-1-0-1-0--3-1-0----|

     Riff5 :
    C#|---------------------------------|
    G#|---------------------------------|
    E |---------------------------------| riff played in 5th's later
    B |---------------------------------| in the song w/o PM's
    F#|---------------------------------|
    B |-3-1-0-1-0-0-3-1-0-1-0-0-3-1-0-0-|
     PM - - - - - - - - - - - - - - - -

     Riff 6: (w/ wah)
    C#|--------------------------------|
    G#|--------------------------------|
    E |-10-9--8-7--10-9--8-7--10-9--7-8|
    B |--------------------------------|
    F#|--------------------------------|
    B |--------------------------------|

     Riff 7:
    C#|---------------------------------------|
    G#|---------------------------------------|
    E |---------------------------------------|
    B |-6-6-6-6-6-6-6-6-6-6-6-6-6-6-6-9-9-9-9-|
    F#|-6-6-6-6-6-6-6-6-6-6-6-6-6-6-6-9-9-9-9-|
    B |-6-6-6-6-6-6-6-6-6-6-6-6-6-6-6-9-9-9-9-|

     Riff 8:
    C#|-------|
    G#|-------|
    E |-7~----|
    B |-------|
    F#|-------|
    B |-------|

     Riff 9:
    C#|---------------------------------------|
    G#|---------------------------------------|
    E |---------------------------------------|
    B |-6-6-6-6-6-6-6-6-6-6-6-6-6-6-6-9-9-9-9-|
    F#|---------------------------------------|
    B |---------------------------------------|

     Riff 10:
    C#|-------------------------------|
    G#|-------------------------------|
    E |-------------------------------|
    B |-2b--0--1--0--2b--0--1--0--0-0-|
    F#|-2b--0--1--0--2b--0--1--0--0-0-|
    B |-2b--0--1--0--2b--0--1--0--0-0-|
     PM                           - -
Suggest correction
comments
print report bad tab
6 comments total. Showing first comments.
0 reply
pip7 176 Dec 31, 2007 01:47 PM

i think that the main riff goes like
this
|-----|
|-----
---|
|-8/7-----8-8-8-8/7-----8-7/8-|
|-8/7-----8-8-8-8/7-----1-3-1-8
-7/8-|
|-6/5-----6-6-6-6/5-----1-3-1-6-5/6-|
|-----0-0-0-0-0-0-0-0----
-0-0-0-0-0-0-1-3-1
-----|
palm mute all open E string (with the tuning it is the B string)
and just repeat that

still a really good
tab

0 reply
pip7 176 Dec 31, 2007 01:53 PM

oh shit that ****ed up sorry

|------------------------------------------------------
|------------------------------------------------------
|-8/
7-----------------8-8-8-8/7-------------------8-7/8-
|-8/7-----------------8-8-8-8/7-------------1-3-1-8-7/8-
|-6/5---
--------------6-6-6-6/5-------------1-3-1-6-5/6-
|-----0-0-0-0-0-0-0-0-----------0-0-0-0-0-0-1-3-1-------

hopefully
that is better

0 reply
Dissolution213 52 Jul 02, 2008 02:49 AM

Missing part of the intro, but everything else is great.

guest
You may want to rate the tab now too:
select rating
Wanna post a correction for this tab? Suggest correction