Oops, an error
Loading. Please wait.

Darkness Within tab

version 3
version 3
47,299 views 99 this week
6 commentsread comments
1 2 3 4 5
x 27
add to favorites
×
Save as Personal and add changes to this tab that will be seen only by you. Learn more ›
×
You can save this tab as Personal to edit and correct it or add notes. All changes will be seen only by you. Learn more »
launch autoscroll
font size
0
reset
how to read this tab
guitar tuner
edit
Autoscroll
slow
fast
+/-
esc
set tempo
stop
Band:   Machine Head
Song:   Darkness Within
Album:  Unto The Locust (2011)
Tuning: Drop B (B, F#, B, E, G#, C#)

Machine Head don't play in Drop B precisely... They are tuned to
Drop B but then tuned up 40 cents sharper... So even though not possible
it's kind of like they're playing in Drop B# (Between Drop B and C)


On a Korg tuner it would look something like this

Tuner:
50♭                          x  50#
|--|--|--|--|-[-B-]-|--|--|--|--|

The 'x' is where you want to be tuned to
I hope that helps anyway... xD

Also comment, correct, and please, please rate!!!

On further note... Look forward to the other songs from Unto The Locust!
I plan to put them here as soon as I've figured them out

Acoustic Guitar: Robb Flynn
Guitar 1:        Robb Flynn
Guitar 2:        Phil Demmel


[Verse 1]

Acoustic guitar
|------------------|------------------|
|------------------|------------------|
|-14---------------|-12---------------|
|--0---------------|--0---------------|
|------------------|------------------|
|------------------|------------------|

|------------------|------------------|
|------------------|------------------|
|-15---------------|-10---------------|
|--0---------------|--0---------------|
|------------------|------------------|
|------------------|------------------|


[Verse 2]

Acoustic guitar
|---------------------------------|---------------------------------|
|-6-6-5-----6-6-5---------6-6-5---|-6-6-5-----6-6-5---------6-6-5---|
|-7-7-7-----7-7-7---------7-7-7---|-6-6-6-----6-6-6---------6-6-6---|
|-0-0-0-0-0-0-0-0-0-0-0-0-0-0-0-0-|-0-0-0-0-0-0-0-0-0-0-0-0-0-0-0-0-|
|---------------------------------|---------------------------------|
|---------------------------------|---------------------------------|

|---------------------------------|---------------------------------|
|-6-6-5-----6-6-5---------6-6-5---|-6---5-----5-6-8---6-----8-8-6---|
|-5-5-5-----5-5-5---------5-5-5---|-3---3-----3-3-5---5-----5-5-5---|
|-0-0-0-0-0-0-0-0-0-0-0-0-0-0-0-0-|-0-0-0-0-0-0-0-0-0-0-0-0-0-0-0-0-|
|---------------------------------|---------------------------------|
|---------------------------------|---------------------------------|

|---------------------------------|---------------------------------|
|-6-6-5-----6-6-5---------6-6-5---|-6-6-5-----6-6-5---------6-6-5---|
|-7-7-7-----7-7-7---------7-7-7---|-6-6-6-----6-6-6---------6-6-6---|
|-0-0-0-0-0-0-0-0-0-0-0-0-0-0-0-0-|-0-0-0-0-0-0-0-0-0-0-0-0-0-0-0-0-|
|---------------------------------|---------------------------------|
|---------------------------------|---------------------------------|

|---------------------------------|------------------------------------|
|-6-6-5-----6-6-5---------6-6-5---|-10---8-----8-10-11--13--11--10-----|
|-5-5-5-----5-5-5---------5-5-5---|--7---7-----7--7--7---7---7---7-----|
|-0-0-0-0-0-0-0-0-0-0-0-0-0-0-0-0-|--0-0-0-0-0-0--0--0-0-0-0-0-0-0-0-0-|
|---------------------------------|------------------------------------|
|---------------------------------|------------------------------------|


[Chorus]

Acoustic guitar
    NH--|   NH--|   NH--|   NH--|     NH--|   NH--|    NH--|    NH--|
|---------------------------------|-----------------------------------|
|---------------------------------|-----------------------------------|
|-----7-------7-------7-------7---|-----7-------7--------7--------7---|
|---7---7---7---7---7---7---7---7-|---7---7---7---7----7---7----7---7-|
|---------------------------------|-----------------------------------|
|-8-------8-------5-------5-------|-0-------0-------10-------10-------|

    NH--|   NH--|   NH--|   NH--|     NH--|   NH--|   NH--|   NH--|
|---------------------------------|---------------------------------|
|---------------------------------|---------------------------------|
|-----7-------7-------7-------7---|-----7-------7-------7-------7---|
|---7---7---7---7---7---7---7---7-|---7---7---7---7---7---7---7---7-|
|---------------------------------|-0-------0-------0-------0-------|
|-8-------8-------5-------5-------|---------------------------------|


[Verse 1]

Acoustic guitar
|------------------|------------------|
|------------------|------------------|
|-14---------------|-12---------------|
|--0---------------|--0---------------|
|------------------|------------------|
|------------------|------------------|


[Verse 2]

Guitar 1
|---------------------------------|---------------------------------|
|-6-6-5-----6-6-5---------6-6-5---|-6-6-5-----6-6-5---------6-6-5---|
|-7-7-7-----7-7-7---------7-7-7---|-6-6-6-----6-6-6---------6-6-6---|
|-0-0-0-0-0-0-0-0-0-0-0-0-0-0-0-0-|-0-0-0-0-0-0-0-0-0-0-0-0-0-0-0-0-|
|---------------------------------|---------------------------------|
|---------------------------------|---------------------------------|

|---------------------------------|---------------------------------|
|-6-6-5-----6-6-5---------6-6-5---|-6---5-----5-6-8---6-----8-8-6---|
|-5-5-5-----5-5-5---------5-5-5---|-3---3-----3-3-5---5-----5-5-5---|
|-0-0-0-0-0-0-0-0-0-0-0-0-0-0-0-0-|-0-0-0-0-0-0-0-0-0-0-0-0-0-0-0-0-|
|---------------------------------|---------------------------------|
|---------------------------------|---------------------------------|

|---------------------------------|---------------------------------|
|-6-6-5-----6-6-5---------6-6-5---|-6-6-5-----6-6-5---------6-6-5---|
|-7-7-7-----7-7-7---------7-7-7---|-6-6-6-----6-6-6---------6-6-6---|
|-0-0-0-0-0-0-0-0-0-0-0-0-0-0-0-0-|-0-0-0-0-0-0-0-0-0-0-0-0-0-0-0-0-|
|---------------------------------|---------------------------------|
|---------------------------------|---------------------------------|

|---------------------------------|------------------------------------|
|-6-6-5-----6-6-5---------6-6-5---|-10---8-----8-10-11--13--11--10-----|
|-5-5-5-----5-5-5---------5-5-5---|--7---7-----7--7--7---7---7---7-----|
|-0-0-0-0-0-0-0-0-0-0-0-0-0-0-0-0-|--0-0-0-0-0-0--0--0-0-0-0-0-0-0-0-0-|
|---------------------------------|------------------------------------|
|---------------------------------|------------------------------------|


[Pre-Chorus]

Guitar 1
|------------------------------------|
|-10---8-----8-10-11--13--11--10-----|
|--7---7-----7--7--7---7---7---7-----|
|--0-0-0-0-0-0--0--0-0-0-0-0-0-0-0-0-|
|------------------------------------|
|------------------------------------|


[Chorus]

Guitar 1
    NH--|   NH--|   NH--|   NH--|     NH--|   NH--|    NH--|    NH--|
|---------------------------------|-----------------------------------|
|---------------------------------|-----------------------------------|
|-----7-------7-------7-------7---|-----7-------7--------7--------7---|
|---7---7---7---7---7---7---7---7-|---7---7---7---7----7---7----7---7-|
|---------------------------------|-----------------------------------|
|-8-------8-------5-------5-------|-0-------0-------10-------10-------|

Guitar 2
|---------------------------------|---------------------------------|
|---------------------------------|---------------------------------|
|---------------------------------|---------------------------------|
|-8-8-8-8-8-8-8-8-8-8-8-8-8-8-8-8-|-5-5-5-5-5-5-5-5-5-5-5-5-5-5-5-5-|
|-8-8-8-8-8-8-8-8-8-8-8-8-8-8-8-8-|-5-5-5-5-5-5-5-5-5-5-5-5-5-5-5-5-|
|-8-8-8-8-8-8-8-8-8-8-8-8-8-8-8-8-|-5-5-5-5-5-5-5-5-5-5-5-5-5-5-5-5-|

|---------------------------------|-------------------------------------------------|
|---------------------------------|-------------------------------------------------|
|---------------------------------|-------------------------------------------------|
|-0-0-0-0-0-0-0-0-0-0-0-0-0-0-0-0-|-10-10-10-10-10-10-10-10-10-10-10-10-10-10-10-10-|
|-0-0-0-0-0-0-0-0-0-0-0-0-0-0-0-0-|-10-10-10-10-10-10-10-10-10-10-10-10-10-10-10-10-|
|-0-0-0-0-0-0-0-0-0-0-0-0-0-0-0-0-|-10-10-10-10-10-10-10-10-10-10-10-10-10-10-10-10-|

Guitar 1
    NH--|   NH--|   NH--|   NH--|     NH--|   NH--|   NH--|   NH--|
|---------------------------------|---------------------------------|
|---------------------------------|---------------------------------|
|-----7-------7-------7-------7---|-----7-------7-------7-------7---|
|---7---7---7---7---7---7---7---7-|---7---7---7---7---7---7---7---7-|
|---------------------------------|-0-------0-------0-------0-------|
|-8-------8-------5-------5-------|---------------------------------|

Guitar 2
|---------------------------------|---------------------------------|
|---------------------------------|---------------------------------|
|---------------------------------|---------------------------------|
|-8-8-8-8-8-8-8-8-8-8-8-8-8-8-8-8-|-5-5-5-5-5-5-5-5-5-5-5-5-5-5-5-5-|
|-8-8-8-8-8-8-8-8-8-8-8-8-8-8-8-8-|-5-5-5-5-5-5-5-5-5-5-5-5-5-5-5-5-|
|-8-8-8-8-8-8-8-8-8-8-8-8-8-8-8-8-|-5-5-5-5-5-5-5-5-5-5-5-5-5-5-5-5-|

|---------------------------------|---------------------------------|
|---------------------------------|---------------------------------|
|---------------------------------|---------------------------------|
|-7-7-7-7-7-7-7-7-7-7-7-7-7-7-7-7-|-7-7-7-7-7-7-7-7-7-7-7-7-7-7-7-7-|
|-7-7-7-7-7-7-7-7-7-7-7-7-7-7-7-7-|-7-7-7-7-7-7-7-7-7-7-7-7-7-7-7-7-|
|-7-7-7-7-7-7-7-7-7-7-7-7-7-7-7-7-|-7-7-7-7-7-7-7-7-7-7-7-7-7-7-7-7-|


[Verse 3]

Both guitars
|---------------------------------|---------------------------------|
|---------------------------------|---------------------------------|
|-7-7-7-7-7-7-7-7-7-7-7-7-7-7-7-7-|-6-6-6-6-6-6-6-6-6-6-6-6-6-6-6-6-|
|-7-7-7-7-7-7-7-7-7-7-7-7-7-7-7-7-|-7-7-7-7-7-7-7-7-7-7-7-7-7-7-7-7-|
|-5-5-5-5-5-5-5-5-5-5-5-5-5-5-5-5-|-4-4-4-4-4-4-4-4-4-4-4-4-4-4-4-4-|
|---------------------------------|---------------------------------|

|---------------------------------|---------------------------------------|
|---------------------------------|---------------------------------------|
|-5-5-5-5-5-5-5-5-6-6-6-6-6-6-6-6-|-7-7-7-7-7-7-7-10-10\9-9/12-12\10-9/10-|
|-5-5-5-5-5-5-5-5-7-7-7-7-7-7-7-7-|-7-7-7-7-7-7-7-------------------------|
|-3-3-3-3-3-3-3-3-4-4-4-4-4-4-4-4-|-5-5-5-5-5-5-5--8--8\7-7/10-10\-8-7/-8-|
|---------------------------------|---------------------------------------|

|---------------------------------|---------------------------------|
|---------------------------------|---------------------------------|
|-7-7-7-7-7-7-7-7-7-7-7-7-7-7-7-7-|-6-6-6-6-6-6-6-6-6-6-6-6-6-6-6-6-|
|-7-7-7-7-7-7-7-7-7-7-7-7-7-7-7-7-|-7-7-7-7-7-7-7-7-7-7-7-7-7-7-7-7-|
|-5-5-5-5-5-5-5-5-5-5-5-5-5-5-5-5-|-4-4-4-4-4-4-4-4-4-4-4-4-4-4-4-4-|
|---------------------------------|---------------------------------|

|---------------------------------|---------------------------------|
|---------------------------------|---------------------------------|
|-5-5-5-5-5-5-5-5-6-6-6-6-6-6-6-6-|---------------------------------|
|-5-5-5-5-5-5-5-5-7-7-7-7-7-7-7-7-|-0-0-0-0-0-0-0-0-0-0-0-0-0-0-0-0-|
|-3-3-3-3-3-3-3-3-4-4-4-4-4-4-4-4-|-0-0-0-0-0-0-0-0-0-0-0-0-0-0-0-0-|
|---------------------------------|-0-0-0-0-0-0-0-0-0-0-0-0-0-0-0-0-|


[Solo 1]

Guitar 2
|-----------|
|-----18-20-|
|-/19-------|
|-----------|
|-----------|
|-----------|

Guitar 2
|------------------20---------20----------20---------|
|-20BU(22)-----------20BU(22)----20BU(22)---20BU(22)-|
|----------------------------------------------------|
|----------------------------------------------------|
|----------------------------------------------------|
|----------------------------------------------------|
|
|Guitar 1
|---------------------------------|
|---------------------------------|
|---------------------------------|
|-8-8-8-8-8-8-8-8-8-8-8-8-8-7-7-7-|
|-8-8-8-8-8-8-8-8-8-8-8-8-8-7-7-7-|
|-8-8-8-8-8-8-8-8-8-8-8-8-8-7-7-7-|

Guitar 2
                                            PH
|--------------------------------------------------------------|
|-22-20-20p18-18-18-18p17-17-17-17h18p17h18-18BU(20)(18)-17-18-|
|--------------------------------------------------------------|
|--------------------------------------------------------------|
|--------------------------------------------------------------|
|--------------------------------------------------------------|
|
|Guitar 1
|---------------------------------|
|---------------------------------|
|---------------------------------|
|-5-5-5-5-5-5-5-5-5-5-5-5---2-----|
|-5-5-5-5-5-5-5-5-5-5-5-5---2-----|
|-5-5-5-5-5-5-5-5-5-5-5-5-3-2-----|

Guitar 2
|----------------------------------|
|----------------------------------|
|-9-10-9-10---9-10-9-10/12\10-9-10-|
|----------------------------------|
|----------------------------------|
|----------------------------------|
|
|Guitar 1
|---------------------------------|
|---------------------------------|
|-7-7-7-7-7-7-7-7-7-7-7-7-7-7-7-7-|
|-7-7-7-7-7-7-7-7-7-7-7-7-7-7-7-7-|
|-5-5-5-5-5-5-5-5-5-5-5-5-5-5-5-5-|
|---------------------------------|

Guitar 2
               PH
|----------------------------------|
|----------------------------------|
|-14^-10----10-14^-10----10-14^-10-|
|--------12-----------12-----------|
|----------------------------------|
|----------------------------------|
|
|Guitar 1
|---------------------------------|
|---------------------------------|
|-5-5-5-5-5-5-5-5-5-5-5-5-5-5-5-5-|
|-5-5-5-5-5-5-5-5-5-5-5-5-5-5-5-5-|
|-3-3-3-3-3-3-3-3-3-3-3-3-3-3-3-3-|
|---------------------------------|

Guitar 2
                                  PH
|-------------------------------------------|
|----10------12------10------12-------------|
|----10------12------10------12---12^----10-|
|-12------12------12------12----------12----|
|-------------------------------------------|
|-------------------------------------------|
|
|Guitar 1
|---------------------------------|
|---------------------------------|
|---------------------------------|
|-8-8-8-8-8-8-8-8-8-8-8-8-8-7-7-7-|
|-8-8-8-8-8-8-8-8-8-8-8-8-8-7-7-7-|
|-8-8-8-8-8-8-8-8-8-8-8-8-8-7-7-7-|

Guitar 2
                               PH
|----------------------------------------------------------------20------|
|------------------------------10-----------------18-20-20BU(22)----(22)-|
|-------9-10-12--------9-10-12--------------17-19------------------------|
|-10-12-------------12----------------17-19------------------------------|
|------------------------------------------------------------------------|
|------------------------------------------------------------------------|
|
|Guitar 1
|---------------------------------|
|---------------------------------|
|---------------------------------|
|-5-5-5-5-5-5-5-5-5-5-5-5---2-----|
|-5-5-5-5-5-5-5-5-5-5-5-5---2-----|
|-5-5-5-5-5-5-5-5-5-5-5-5-3-2-----|

Guitar 2
|-13p10------10-13p10------10-13p10------10-13p10------10-|
|------10--10--------10--10--------10--10--------10--10---|
|---------------------------------------------------------|
|--------12------------12------------12------------12-----|
|---------------------------------------------------------|
|---------------------------------------------------------|
|
|Guitar 1
|---------------------------------|
|---------------------------------|
|-7-7-7-7-7-7-7-7-7-7-7-7-7-7-7-7-|
|-7-7-7-7-7-7-7-7-7-7-7-7-7-7-7-7-|
|-5-5-5-5-5-5-5-5-5-5-5-5-5-5-5-5-|
|---------------------------------|

Guitar 2
                              T  T     T  T     T  T     T  T
|-12p10------10-12p10------10-15-15p10-13-13p10-12-12p10-13-13p10-|
|------10--10--------10--10---------------------------------------|
|-----------------------------------------------------------------|
|--------12------------12-----------------------------------------|
|-----------------------------------------------------------------|
|-----------------------------------------------------------------|
|
|Guitar 1
|---------------------------------|
|---------------------------------|
|-5-5-5-5-5-5-5-5-5-5-5-5-5-5-5-5-|
|-5-5-5-5-5-5-5-5-5-5-5-5-5-5-5-5-|
|-3-3-3-3-3-3-3-3-3-3-3-3-3-3-3-3-|
|---------------------------------|

Guitar 2
|-17^-13----13-17^-13----13-17^---|
|--------15-----------15----------|
|---------------------------------|
|---------------------------------|
|---------------------------------|
|---------------------------------|
|
|Guitar 1
|---------------------------------|
|---------------------------------|
|---------------------------------|
|-8-8-8-8-8-8-8-8-8-8-8-8-8-8-8-8-|
|-8-8-8-8-8-8-8-8-8-8-8-8-8-8-8-8-|
|-8-8-8-8-8-8-8-8-8-8-8-8-8-8-8-8-|

Guitar 2
|-17-18-20--18--17-18--17--15-17--15--13-15--13--12-|
|---------------------------------------------------|
|---------------------------------------------------|
|---------------------------------------------------|
|---------------------------------------------------|
|---------------------------------------------------|
|
|Guitar 1
|---------------------------------|
|---------------------------------|
|---------------------------------|
|-7-7-7-7-7-7-7-7-7-7-7-7-7-7-7-7-|
|-7-7-7-7-7-7-7-7-7-7-7-7-7-7-7-7-|
|-7-7-7-7-7-7-7-7-7-7-7-7-7-7-7-7-|

Guitar 2
|----------------------------------------------------------------|
|-3h5h6-5h6h8-6h8h10-8h10h11-10h11h13-11h13h15-13h15h17-15h17h18-|
|----------------------------------------------------------------|
|----------------------------------------------------------------|
|----------------------------------------------------------------|
|----------------------------------------------------------------|
|
|Guitar 1
|---------------------------------|
|---------------------------------|
|-7-7-7-7-7-7-7-7-7-7-7-7-7-7-7-7-|
|---------------------------------|
|-5-5-5-5-5-5-5-5-5-5-5-5-5-5-5-5-|
|---------------------------------|


[Pre-Breakdown]

Guitar 1
|---------------------------------|---------------------------------|
|---------------------------------|---------------------------------|
|-7---9---10--12--14--17--19--19--|-7---9---10--12--14--17--19--19--|
|---0---0---0---0---0---0---0---0-|---0---0---0---0---0---0---0---0-|
|---------------------------------|---------------------------------|
|---------------------------------|---------------------------------|

|---------------------------------|---------------------------------|
|---------------------------------|---------------------------------|
|-7---9---10--12--14--17--19--19--|-7---9---10--12--14--17--19--19--|
|---0---0---0---0---0---0---0---0-|---0---0---0---0---0---0---0---0-|
|---------------------------------|---------------------------------|
|---------------------------------|---------------------------------|

Guitar 1
|---------------------------------|---------------------------------|
|---------------------------------|---------------------------------|
|-7---9---10--12--14--17--19--19--|-7---9---10--12--14--17--19--19--|
|---0---0---0---0---0---0---0---0-|---0---0---0---0---0---0---0---0-|
|---------------------------------|---------------------------------|
|---------------------------------|---------------------------------|

Guitar 2
|---------------------------------|---------------------------------|
|---------------------------------|---------------------------------|
|-10--12--14--15--17--21--22--22--|-10--12--14--15--17--21--22--22--|
|---0---0---0---0---0---0---0---0-|---0---0---0---0---0---0---0---0-|
|---------------------------------|---------------------------------|
|---------------------------------|---------------------------------|

Guitar 1
|---------------------------------|---------------------------------|
|---------------------------------|---------------------------------|
|-7---9---10--12--14--17--19--19--|-7---9---10--12--14--17--19--19--|
|---0---0---0---0---0---0---0---0-|---0---0---0---0---0---0---0---0-|
|---------------------------------|---------------------------------|
|---------------------------------|---------------------------------|

Guitar 2
|---------------------------------|---------------------------------|
|---------------------------------|---------------------------------|
|-10--12--14--15--17--21--22--22--|-10--12--14--15--17--21--22--22--|
|---0---0---0---0---0---0---0---0-|---0---0---0---0---0---0---0---0-|
|---------------------------------|---------------------------------|
|---------------------------------|---------------------------------|


[Breakdown]

Both guitars
|-------------------------|-------------------------|-------------------------|
|-------------------------|-------------------------|-------------------------|
|-------------------------|-------------------------|-------------------------|
|-3-----------------------|-2-----------------------|-1-----------------------|
|-3-----------------------|-2-----------------------|-1-----------------------|
|-3-------0-0-0---0-0-0---|-2-------0-0-0---0-0-0---|-1-------0-0-0---0-0-0---|

      NH--|       NH---|
|-----------------------|
|-----------------------|
|---------7-------7-----|
|-----7---------------7-|
|-6-----------6---------|
|-6-----------6---------|

|-------------------------|-------------------------|-------------------------|
|-------------------------|-------------------------|-------------------------|
|-------------------------|-------------------------|-------------------------|
|-3-----------------------|-2-----------------------|-1-----------------------|
|-3-----------------------|-2-----------------------|-1-----------------------|
|-3-------0-0-0---0-0-0---|-2-------0-0-0---0-0-0---|-1-------0-0-0---0-0-0---|

|-----------------------|
|-----------------------|
|-----------------------|
|-----------------------|
|-6---5---3---6---5---3-|
|-6---5---3---6---5---3-|

(Guitar 1 plays the first harmony part alone then guitar 2 kicks in)


[Chorus]

Guitar 1
    NH--|   NH--|   NH--|   NH--|     NH--|   NH--|    NH--|    NH--|
|---------------------------------|-----------------------------------|
|---------------------------------|-----------------------------------|
|-----7-------7-------7-------7---|-----7-------7--------7--------7---|
|---7---7---7---7---7---7---7---7-|---7---7---7---7----7---7----7---7-|
|---------------------------------|-----------------------------------|
|-8-------8-------5-------5-------|-0-------0-------10-------10-------|

Guitar 2
|---------------------------------|---------------------------------|
|---------------------------------|---------------------------------|
|---------------------------------|---------------------------------|
|-8-8-8-8-8-8-8-8-8-8-8-8-8-8-8-8-|-5-5-5-5-5-5-5-5-5-5-5-5-5-5-5-5-|
|-8-8-8-8-8-8-8-8-8-8-8-8-8-8-8-8-|-5-5-5-5-5-5-5-5-5-5-5-5-5-5-5-5-|
|-8-8-8-8-8-8-8-8-8-8-8-8-8-8-8-8-|-5-5-5-5-5-5-5-5-5-5-5-5-5-5-5-5-|

|---------------------------------|-------------------------------------------------|
|---------------------------------|-------------------------------------------------|
|---------------------------------|-------------------------------------------------|
|-0-0-0-0-0-0-0-0-0-0-0-0-0-0-0-0-|-10-10-10-10-10-10-10-10-10-10-10-10-10-10-10-10-|
|-0-0-0-0-0-0-0-0-0-0-0-0-0-0-0-0-|-10-10-10-10-10-10-10-10-10-10-10-10-10-10-10-10-|
|-0-0-0-0-0-0-0-0-0-0-0-0-0-0-0-0-|-10-10-10-10-10-10-10-10-10-10-10-10-10-10-10-10-|

Guitar 1
    NH--|   NH--|   NH--|   NH--|     NH--|   NH--|   NH--|   NH--|
|---------------------------------|---------------------------------|
|---------------------------------|---------------------------------|
|-----7-------7-------7-------7---|-----7-------7-------7-------7---|
|---7---7---7---7---7---7---7---7-|---7---7---7---7---7---7---7---7-|
|---------------------------------|-0-------0-------0-------0-------|
|-8-------8-------5-------5-------|---------------------------------|

Guitar 2
|---------------------------------|---------------------------------|
|---------------------------------|---------------------------------|
|---------------------------------|---------------------------------|
|-8-8-8-8-8-8-8-8-8-8-8-8-8-8-8-8-|-5-5-5-5-5-5-5-5-5-5-5-5-5-5-5-5-|
|-8-8-8-8-8-8-8-8-8-8-8-8-8-8-8-8-|-5-5-5-5-5-5-5-5-5-5-5-5-5-5-5-5-|
|-8-8-8-8-8-8-8-8-8-8-8-8-8-8-8-8-|-5-5-5-5-5-5-5-5-5-5-5-5-5-5-5-5-|

|---------------------------------|---------------------------------|
|---------------------------------|---------------------------------|
|---------------------------------|---------------------------------|
|-7-7-7-7-7-7-7-7-7-7-7-7-7-7-7-7-|-7-7-7-7-7-7-7-7-7-7-7-7-7-7-7-7-|
|-7-7-7-7-7-7-7-7-7-7-7-7-7-7-7-7-|-7-7-7-7-7-7-7-7-7-7-7-7-7-7-7-7-|
|-7-7-7-7-7-7-7-7-7-7-7-7-7-7-7-7-|-7-7-7-7-7-7-7-7-7-7-7-7-7-7-7-7-|


Repeat chorus:

Guitar 1
    NH--|   NH--|   NH--|   NH--|     NH--|   NH--|    NH--|    NH--|
|---------------------------------|-----------------------------------|
|---------------------------------|-----------------------------------|
|-----7-------7-------7-------7---|-----7-------7--------7--------7---|
|---7---7---7---7---7---7---7---7-|---7---7---7---7----7---7----7---7-|
|---------------------------------|-----------------------------------|
|-8-------8-------5-------5-------|-0-------0-------10-------10-------|

Guitar 2
|---------------------------------|---------------------------------|
|---------------------------------|---------------------------------|
|---------------------------------|---------------------------------|
|-8-8-8-8-8-8-8-8-8-8-8-8-8-8-8-8-|-5-5-5-5-5-5-5-5-5-5-5-5-5-5-5-5-|
|-8-8-8-8-8-8-8-8-8-8-8-8-8-8-8-8-|-5-5-5-5-5-5-5-5-5-5-5-5-5-5-5-5-|
|-8-8-8-8-8-8-8-8-8-8-8-8-8-8-8-8-|-5-5-5-5-5-5-5-5-5-5-5-5-5-5-5-5-|

|---------------------------------|-------------------------------------------------|
|---------------------------------|-------------------------------------------------|
|---------------------------------|-------------------------------------------------|
|-0-0-0-0-0-0-0-0-0-0-0-0-0-0-0-0-|-10-10-10-10-10-10-10-10-10-10-10-10-10-10-10-10-|
|-0-0-0-0-0-0-0-0-0-0-0-0-0-0-0-0-|-10-10-10-10-10-10-10-10-10-10-10-10-10-10-10-10-|
|-0-0-0-0-0-0-0-0-0-0-0-0-0-0-0-0-|-10-10-10-10-10-10-10-10-10-10-10-10-10-10-10-10-|

Guitar 1
    NH--|   NH--|   NH--|   NH--|     NH--|   NH--|   NH--|   NH--|
|---------------------------------|---------------------------------|
|---------------------------------|---------------------------------|
|-----7-------7-------7-------7---|-----7-------7-------7-------7---|
|---7---7---7---7---7---7---7---7-|---7---7---7---7---7---7---7---7-|
|---------------------------------|-0-------0-------0-------0-------|
|-8-------8-------5-------5-------|---------------------------------|

Guitar 2
|---------------------------------|---------------------------------|
|---------------------------------|---------------------------------|
|---------------------------------|---------------------------------|
|-8-8-8-8-8-8-8-8-8-8-8-8-8-8-8-8-|-5-5-5-5-5-5-5-5-5-5-5-5-5-5-5-5-|
|-8-8-8-8-8-8-8-8-8-8-8-8-8-8-8-8-|-5-5-5-5-5-5-5-5-5-5-5-5-5-5-5-5-|
|-8-8-8-8-8-8-8-8-8-8-8-8-8-8-8-8-|-5-5-5-5-5-5-5-5-5-5-5-5-5-5-5-5-|

|---------------------------------|---------------------------------|
|---------------------------------|---------------------------------|
|---------------------------------|---------------------------------|
|-7-7-7-7-7-7-7-7-7-7-7-7-7-7-7-7-|-7-7-7-7-7-7-7-7-7-7-7-7-7-7-7-7-|
|-7-7-7-7-7-7-7-7-7-7-7-7-7-7-7-7-|-7-7-7-7-7-7-7-7-7-7-7-7-7-7-7-7-|
|-7-7-7-7-7-7-7-7-7-7-7-7-7-7-7-7-|-7-7-7-7-7-7-7-7-7-7-7-7-7-7-7-7-|


[Outro]

Guitar 1 (Repeat until fade out)
|-----------------|-----------------|-----------------|-----------------|
|-----------------|-----------------|-----------------|-----------------|
|-----------------|-----------------|-----------------|-----------------|
|-7---------------|-7---------------|-5-------7-------|-7---------------|
|-5---------------|-4---------------|-3-------4-------|-5---------------|
|-----------------|-----------------|-----------------|-----------------|

Guitar 2
|-----------------|-----------------|-----------------|-----------------|
|-----------------|-----------------|-----------------|-----------------|
|-----------------|-----------------|-----------------|-----------------|
|-0---------------|-(0)-------------|-(0)-------------|-(0)-------------|
|-0---------------|-(0)-------------|-(0)-------------|-(0)-------------|
|-0---------------|-(0)-------------|-(0)-------------|-(0)-------------|


************************************

| (n)  Ghost note
| h    Hammer-on
| p    Pull-off
| /    Slide up
| \    Slide down
| BU(  Bend
| ^    Return Bend
| NH   Natural Harmonic  

************************************

            
            
Suggest correction
Creating personal tab
Creating personal tab
You can edit any tab online and save it as your Personal.

You can edit, replace or remove any tab part or add personal notes – all changes will be seen only by you.

Personal tabs can be accessed anytime from any device, even offline.
Learn more »
comments
print report bad tab
6 comments total. Showing first comments.
+4 reply
lock@stoner 30 May 19, 2012 03:41 AM

hey, love the tab nice work, just wondering do you tune all of the strings up fourty cents or just the low b? thanks :)

+4 reply
slipknot836 1,839 May 19, 2012 12:06 PM

All of them dude, that way all the harmonics get a richer and cleaner tone. I think that's why Machine Head tune that way :)

+3 reply
DanielHsv0 57 Jul 14, 2012 07:33 PM

Machine Head play really Compilcated stuff!
Awesome Tab!

guest
You may want to rate the tab now too:
select rating
Wanna post a correction for this tab? Suggest correction