Oops, an error
Loading. Please wait.

Davidian Tab

version 1
version 1

Whole song

Interactive

56,620 views 48 this week
13 commentsread comments
1 2 3 4 5
x 12
add to favorites
launch autoscroll
font size
0
reset
how to read this tab
guitar tuner
Autoscroll
slow
fast
+/-
esc
set tempo
stop
Help us to improve Ultimate-Guitar.com Take our survey!
×
Author
tabbed by Semmel
Tuning: Drop D
Song: Davidian
Artist: Machine Head
Questions to: max.semmel@gmx.de


[Intro]

E|-------------------------------|
B|-------------------------------|
G|------n.h.---------n.h.--------|
D|------5------------5-----------|
A|-0-0---5--1----0-0---5---1-3-5-|
D|-0-0------1----0-0-------1-3-5-|
   Pm            Pm


[Verse]

E|------------------------------|Blind man ask me forgiveness 
B|------------------------------|I won't deny myself 
G|------------------------------|Disrespect you have given 
D|------------------------------|Your suffering's my wealth 
A|-0-0--1-0-0--0-5-0-0-0-1-3----|I feed off pain, force fed to love it 
D|-0-0--1-0-0--0-5-0-0-0-1-3----|And now I swallow whole 
                                 I'll never live in the past 


[Break]

(let freedom ring with a shotgun blast)


[Then]

E|-------------------------------|
B|-------------------------------|
G|-------------------n.h.--------|
D|-----------------[5-5-5]-------|
A|-0-3-0-6-5-0-1-0-[5-5-5]-0-1---|
D|-0-3-0-6-5-0-1-0---------0-1---|

E|----------------------------------------------|
B|----------------------------------------------|
G|----------------------------------------------|
D|----------------------------------------------|
A|-0-3-0-6-5-0-1-0------------------------------|
D|-0-3-0-6-5-0-1-0--[0-0-0-0-1-0-0-0-2-0-0-0-0]-|
                           Pm

E|------------------------------|Burn my fist to the concrete 
B|------------------------------|My fear is my strength  
G|------------------------------|Power, rage unbound strength 
D|------------------------------|Been pounded by the streets 
A|-0-0--1-0-0--0-5-0-0-0-1-3----|Cyanide blood burns down the skyline 
D|-0-0--1-0-0--0-5-0-0-0-1-3----|Hatred is purity 
                                 The bullet connects at last 

[Break]

Let freedom ring with a shotgun blast

E|-------------------------------|
B|-------------------------------|
G|-------------------n.h.--------|
D|-----------------[5-5-5]-------|
A|-0-3-0-6-5-0-1-0-[5-5-5]-0-1---|
D|-0-3-0-6-5-0-1-0---------0-1---|

E|----------------------------------------------|
B|----------------------------------------------|
G|----------------------------------------------|
D|----------------------------------------------|
A|-0-3-0-6-5-0-1-0------------------------------|
D|-0-3-0-6-5-0-1-0--[0-0-0-0-1-0-0-0-2-0-0-0-0]-|
                           Pm

Sorry, i don't have the solo but in version 2 it is to 98% right^^

Scarred 
Pour the salt in the wound

[Outro]

E|----------------------------------------------------------------|
B|----------------------------------------------------------------|
G|----------------------------------------------------------------|
D|----------------------------------------------------------------|
A|-000-x-x-000-x-x-000-x-x-000-x-x-000-x-x-000-x-x-333-444-111-333|
D|-000-x-x-000-x-x-000-x-x-000-x-x-000-x-x-000-x-x-333-444-111-333|



************************************

| x  Dead note

************************************
Suggest correction
comments
print report bad tab
13 comments total. Showing first comments.
0 reply
Dr. Love777 10 Jan 19, 2009 06:49 PM

looks pretty good, just maybe next time put like how many times you do each riff and stuff. But anyways Five Stars ***** :P

-2 reply
dbag2738 10 Feb 14, 2009 07:32 PM

this is in drop b but other than that its a sick tab

+2 reply
GuitarHero_jp 2,118 Feb 18, 2009 08:08 AM

This is in Drop C
And instead of:
E|-------------------------------|
B|-------------------------------|
G|------n.h.---------n.h.--------|
D|------5------------5-----------|
A|-0-0---5--1----0-0---5---1-3-5-|
D|-0-0------1----0-0-------1-3-5-|

It should be
E|-------------------------------|
B|-------------------------------|
G|------n.h.---------n.h.--------|
D|------5------------5-----------|
A|-0-0---5--1----0-0---5---1-3-4-|
D|-0-0------1----0-0-------1-3-4-|

Just 4's at the end not 5's

guest
You may want to rate the tab now too:
select rating
Wanna post a correction for this tab? Suggest correction