Oops, an error
Loading. Please wait.

Deafening Silence Bass Tab

version 1
version 1

Whole song

Interactive

773 views 1 this week
no commentswrite comment
1 2 3 4 5
please rate
add to favorites
launch autoscroll
font size
0
reset
guitar tuner
Autoscroll
slow
fast
+/-
esc
set tempo
stop
Help us to improve Ultimate-Guitar.com Take our survey!
×
Author
Difficulty
novice
intro :

|--------|
|--------|     x 5
|--------|
|---20/7-|

verse :

|----------------------------------------|
|----------------------------------------|     x 3
|----------------------------------------|
|---77777777-55555555-333333333-55555555-|

pre chorus :

|------------------------------------|
|------------------------------------|     x 1
|------------------------------------|
|---0~-0-2-3~-0~-0-2-3-3-3-3-3-3-3-3-|

chorus :

|------------------------------------------|
|------------------------------------------|     x 2
|------------------------------------------|
|---7-7--2-2--3-3--0-0--7-7--2-2--3-3--5-5-|

verse x 5

pre chourus  x 1

chorus  x 2

post chorus :

|--------------------------------------|
|--------------------------------------|     x 1
|--------------------------------------|
|---77777777-22222222-3333333-55555555-|

bridge :

|------------|
|------------|     x 4
|------------|
|---7~--3~---|

prechorus x 2

riff 1(during guitar solo) :

|---------------------------------------|
|---------------------------------------|     x 1
|---------------------------------------|
|---77777777-22222222-33333333-00000000-|

post chorus x 1


pre chorus x 2

last chorus 1 :

|---------------------------------------------------------------------------|
|---------------------------------------------------------------------------|
|--------5---------------------------------5--------------------------------|
|---77-77-7-22-22-0-2-33-3333-00-0000-77-77-7-22-22-0-2-33-33-2-3-55-55-3-5-|
    x 1

last chorus 2 :

|------------------------------------------------|
|------------------------------------------------|     x 1
|---------5--------------------------------------|
|---777777-7-222222-0-2-333333-2-3-555555-3-5-7~-|
Suggest correction
Give kudos to tab author, rate the tab!
1 2 3 4 5
comments
print report bad tab
guest
You may want to rate the tab now too:
select rating
Please do not post tabs as comments. Select "correction" instead!