Oops, an error
Loading. Please wait.

From This Day Tab

version 1
version 1

Intro

Whole song

1,145 views 1 this week
1 commentread comment
1 2 3 4 5
please rate
add to favorites
launch autoscroll
font size
0
reset
how to read this tab
guitar tuner
Autoscroll
slow
fast
+/-
esc
set tempo
stop
Help us to improve Ultimate-Guitar.com Take our survey!
×
Author
Machine head - From this Day
The song is played with a 7 string, however, if you do not own one, you 
can tune your guitar (from low to high) BEADGB

~ = Vibrato
#/# = Slide 
#^ = Bend note

E -------------------------------------------------------------
B -------------------------------------------------------------
G -------------------------------------------------------------
D -------------------------------------------------------------
A ----14/13---13-11-------14/13----13-12~----14/13---13---11---
E ----------13-----11-----------13----------------13--------11-
B 0-0-----------------0-0----------------0-0-------------------

E----------------------
B----------------------
G----------------13^---
D----------------------
A----14/13---13--------
E---------13-----------
B 0-0------------------



And thats It. any corrections email to ak_daniel@hotmail.com
Suggest correction
Give kudos to tab author, rate the tab!
1 2 3 4 5
comments
print report bad tab
1 comment total.
0 reply
randkrecords 10 wrote on October 8 2004, 12:00 am

Before i state my opinion i just wanna tell you machine head have never used a 7-string guitar (this can be proved by what rob flynn said on the bonus disk to "through the ashes of empires" and Ahrue Luster doesnt use one, and he does not use on in the video for this song either. Much of the song is ok you just missed 2 notes out this is how i tabbed it:

e)---------------------|
B)---------------------|
G)---------------------|
D)-------------?-------|
A)-14/1313----1211-----|
D)?-------1312----11---|

guest
You may want to rate the tab now too:
select rating
Wanna post a correction for this tab? Suggest correction