Oops, an error
Loading. Please wait.

From This Day Bass Tab

version 2
version 2

Whole song

7 views 1 this week
no commentswrite comment
1 2 3 4 5
3 more votes to show rating
add to favorites
launch autoscroll
font size
0
reset
guitar tuner
Autoscroll
slow
fast
+/-
esc
set tempo
stop
Help us to improve Ultimate-Guitar.com Take our survey!
×
Author
Difficulty
Tuning
intermediate
B F# B E G# C#
Machine Head: From This Day             Drop B

[Guitar Intro]

  Intro Part 1
E |------------------------|
B |------------------------|
F#|------------------------|7x
B |-0~---------------------|

E |------------------------|
B |------------------------|
F#|------5-----------------|7x
B |-0~-----0~--0-1~-1------|

E |------------------------|
B |------------------------|
F#|------5-----------------|
B |-0~-----0~--0-0~----12\-|

  Intro Part 2: 2x
E |-----------------------------|   
B |-----------------------------|   
F#|-----------------------------|3x
B |-0-0~-0-0-0~-0-0-0~-0-1-6-6~-| 

E |-----------------------------|   
B |-----------------------------|   
F#|-----------------------------|
B |-0-0~--0-0-0~--0-------------| 

[Verse 1]
E |-----------------------|       
B |-----------------------|       
F#|-----------------------|5x       
B |-0~---0--0---12\/------|

E |-----------------------|       
B |-----------------------|       
F#|-----------------------|       
B |-0~---0--0---0~--------| 
 
  Chorus: 2x 
E |---------------------------------------------------------|
B |---------------------------------------------------------|
F#|---------------------------------------------------------|
B |-0-0~-0-0-0~-0-0-0~-0-1-6-6~-3-3~-3-3-3~-3-3-3~-3-3-6-6~-|

E |---------------------------------------------------------|
B |---------------------------------------------------------|
F#|-1-1~-1-1-1~-1-1-1~-1-1-0-0~-3-3~-3-3-3~-3-4-4~-4-4-4~-4-|
B |---------------------------------------------------------|

  [Pre-Verse:]
E |-----------------------------|   
B |-----------------------------|   
F#|-----------------------------|2x
B |-1~--------------------------| 

[Verse 2]
E |-----------------------|       
B |-----------------------|       
F#|-----------------------|3x       
B |-0~---0--0---12\/------|

E |-----------------------|       
B |-----------------------|       
F#|-----------------------|       
B |-0~---0--0---0~--------| 

Repeat: Chorus

Pause

[Bridge]
E |---------------------|
B |---------------------|
F#|---------------------|3x
B |-0~-1~-2~--0~-1~-3~--|

E |---------------------|
B |---------------------|
F#|---------------------|
B |-0--6~--0-6~--0-6~---|

E |---------------------|
B |---------------------|
F#|---------------------|3x
B |-0~-1~-2~--0~-1~-3~--|

E |---------------------|
B |---------------------|
F#|---------------------|
B |-0--6~--0-6~--0-6~---|

E |---------------------|
B |---------------------|
F#|---------------------|3x
B |----1~-2~--0~-1~-3~--|

E |---------------------|
B |---------------------|
F#|---------------------|
B |----1~-2~--6~-5~-3~--|

E |-----------------------------------------|
B |-----------------------------------------|
F#|-----------------------------------------| 2x
B |-0~------------------0-------------------|

E |-----------------|
B |-----------------|
F#|-5-5-5-5-5-5-5-5-| 15x
B |-----------------|

E |-----------------|
B |-----------------|
F#|-6-6-6-6-8-8-8-8-| 
B |-----------------|

  [Final Chorus:]
E |---------------------------------------------------------|
B |---------------------------------------------------------|
F#|---------------------------------------------------------|
B |-0---------------------------3-3~-3-3-3~-3-3-3~-3-3-6-6~-|

E |---------------------------------------------------------|
B |---------------------------------------------------------|
F#|-1-1~-1-1-1~-1-1-1~-1-1-0-0~-3-3~-3-3-3~-3-4-4~-4-4-4~-4-|
B |---------------------------------------------------------|

Repeat: Chorus 3x

  End  
E |-----------------------------|   
B |-----------------------------|   
F#|------------------------3~---|
B |-3~-1~-0-------------1~----0-|



************************************

| ~  Vibrato
| \  Slide down

************************************
Suggest correction
Give kudos to tab author, rate the tab!
1 2 3 4 5
comments
print report bad tab
guest
You may want to rate the tab now too:
select rating
Wanna post a correction for this tab? Suggest correction