Oops, an error
Loading. Please wait.

Halo Tab

version 1
version 1

Whole song

Interactive

54,226 views 24 this week
5 commentsread comments
1 2 3 4 5
accurate
x 5
add to favorites
launch autoscroll
font size
0
reset
how to read this tab
guitar tuner
Autoscroll
slow
fast
+/-
esc
set tempo
stop
Help us to improve Ultimate-Guitar.com Take our survey!
×
Author
Difficulty
Tuning
intermediate
B F# B E G# C#
Band: Machine Head
Song: Halo
Tuning: B, F#, B, E, G#, C#

Key;
* = Harmonic
pm. = Palm Mute
b = Bend
~ = Hold/Let Ring
tp = Tremelo Picking/picked


Contact: disturbed_guitarist@hotmail.com      www.myspace.com/d6_1_6g     www.youtube.com/d616g


Funny Enough The Video I Made On Youtube Is Not 100% Right, (also missing solo) was just 
really, because as soon as I figured the basics out I thought why not put it up, so 
not far from being pretty much right.
But here's a tab that I've taken my time on so it should be abit more accurate than my video.
Enjoy.


Intro x3

C#|-----------------------------------------------------|
G#|-----------------------------------------------------|
E |-----10-9---------10-12---------12-14---------17-16--|
B |-12-----------12------------12------------12---------|
F#|-----------------------------------------------------|
B |-----------------------------------------------------|

C#|-13b--|
G#|-16b--|
E |------|
B |------|
F#|------|
B |------|

Main Riff x8


C#|----|---------------------------------|
G#|----|---------------------------------|
E |-5*-|-----------------------------5*--|
B |----|---------------------------------|
F#|----|-0-2-3-2-3-0-2-3-2-2--2-3-2------|
B |----|-0-2-3-2-3-0-2-3-2-2--2-3-2------|

C#|--------------------------------|
G#|--------------------------------|
E |--------------------------------|
B |--------------------------------|
F#|-0-2-3-2-3-0-2--8-7--7-8--8-10--|
B |-0-2-3-2-3-0-2--8-7--7-8--8-10--|


Verse

C#|-------------------------|
G#|-------------------------|
E |-------------------------|
B |-------------------------|  Into 1st part of the main riff.
F#|-2~~~--1111111111111111--|  (So together Play twice)
B |-2~~~--1111111111111111--|
pm        ................


Build Up

C#|--------------------------------------------------|
G#|-10-10-10-10-10-10-10-10-10-10-10-10-10-10-10-10--|
E |-x--x--x--x--x--x--x--x--x--x--x--x--x--x--x--x---|
B |-7--7--7--7--7--7--7--7--7--7--7--7--7--7--7--7---|
F#|--------------------------------------------------|
B |--------------------------------------------------|

C#|--------------------------------------------------|
G#|-12-12-12-12-12-12-12-12-12-12-12-12-12-12-12-12--|
E |-x--x--x--x--x--x--x--x--x--x--x--x--x--x--x--x---|
B |-9--9--9--9--9--9--9--9--9--9--9--9--9--9--9--9---|
F#|--------------------------------------------------|
B |--------------------------------------------------|

Chorus x2

C#|----15-14-------------15-14-----------15-14--------|
G#|-------------15-17-------------15-17--------15-17--|
E |-16-------16-------16-------16---------------------|
B |---------------------------------------------------|
F#|---------------------------------------------------|
B |---------------------------------------------------|


C#|----15-14-------------15-14-----------15-14--------|
G#|-------------15-17-------------15-17--------15-17--|
E |-17-------17-------17-------17---------------------|
B |---------------------------------------------------|
F#|---------------------------------------------------|
B |---------------------------------------------------|


C#|----15-14-------------15-14-----------15-14--------|
G#|-------------15-17-------------15-17--------15-17--|
E |-14-------14-------14-------14---------------------|
B |---------------------------------------------------|
F#|---------------------------------------------------|
B |---------------------------------------------------|


C#|-19b--17b--15b--14b--|
G#|---------------------|
E |---------------------|
B |---------------------|
F#|---------------------|
B |---------------------|

C#|-13b--|
G#|-16b--|
E |------|
B |------|
F#|------|
B |------|

Main Riff x4


C#|----|---------------------------------|
G#|----|---------------------------------|
E |-5*-|-----------------------------5*--|
B |----|---------------------------------|
F#|----|-0-2-3-2-3-0-2-3-2-2--2-3-2------|
B |----|-0-2-3-2-3-0-2-3-2-2--2-3-2------|

C#|--------------------------------|
G#|--------------------------------|
E |--------------------------------|
B |--------------------------------|
F#|-0-2-3-2-3-0-2--8-7--7-8--8-10--|
B |-0-2-3-2-3-0-2--8-7--7-8--8-10--|

Verse

C#|-------------------------|
G#|-------------------------|
E |-------------------------|
B |-------------------------|  Into 1st part of the main riff.
F#|-2~~~--1111111111111111--|  (So together Play twice)
B |-2~~~--1111111111111111--|  There's also a slide at 1 point in the
pm        ................     verse.

Build Up

C#|--------------------------------------------------|
G#|-10-10-10-10-10-10-10-10-10-10-10-10-10-10-10-10--|
E |-x--x--x--x--x--x--x--x--x--x--x--x--x--x--x--x---|
B |-7--7--7--7--7--7--7--7--7--7--7--7--7--7--7--7---|
F#|--------------------------------------------------|
B |--------------------------------------------------|

C#|--------------------------------------------------|
G#|-12-12-12-12-12-12-12-12-12-12-12-12-12-12-12-12--|
E |-x--x--x--x--x--x--x--x--x--x--x--x--x--x--x--x---|
B |-9--9--9--9--9--9--9--9--9--9--9--9--9--9--9--9---|
F#|--------------------------------------------------|
B |--------------------------------------------------|


C#|--------------------------------------------------|
G#|-17-17-17-17-17-17-17-17-17-17-17-17-17-17-17-17--|
E |-x--x--x--x--x--x--x--x--x--x--x--x--x--x--x--x---|
B |-14-14-14-14-14-14-14-14-14-14-14-14-14-14-14-14--|
F#|--------------------------------------------------|
B |--------------------------------------------------|


Chorus x2

C#|----15-14-------------15-14-----------15-14--------|
G#|-------------15-17-------------15-17--------15-17--|
E |-16-------16-------16-------16---------------------|
B |---------------------------------------------------|
F#|---------------------------------------------------|
B |---------------------------------------------------|


C#|----15-14-------------15-14-----------15-14--------|
G#|-------------15-17-------------15-17--------15-17--|
E |-17-------17-------17-------17---------------------|
B |---------------------------------------------------|
F#|---------------------------------------------------|
B |---------------------------------------------------|


C#|----15-14-------------15-14-----------15-14--------|
G#|-------------15-17-------------15-17--------15-17--|
E |-14-------14-------14-------14---------------------|
B |---------------------------------------------------|
F#|---------------------------------------------------|
B |---------------------------------------------------|


C#|-19b--17b--15b--14b--|
G#|---------------------|
E |---------------------|
B |---------------------|
F#|---------------------|
B |---------------------|

C#|-6b~~~~~--|
G#|----------|
E |----------|
B |----------|
F#|----------|
B |----------|

Build Up x2

C#|-----------------------------------------------------|
G#|-----------------------------------------------------|
E |-----10-9---------10-12---------12-14---------17-16--|
B |-12-----------12------------12------------12---------|
F#|-----------------------------------------------------|
B |-----------------------------------------------------|

C#|-------------------------|
G#|------5b-5b-5b-5b-5b-5b--|
E |------8b-8b-8b-8b-8b-8b--|
B |-------------------------|
F#|-2tp---------------------|
B |-2tp---------------------|
pm  .

C#|---------------------------------------|
G#|---------------------------------------|
E |---------------------------------------|
B |------------------------------0-2-0-2--|
F#|---------------------------------------|
B |-2tp-3tp-5tp-3tp-2tp-3tp-2tp-----------|
pm  .   .   .   .   .   .   .

C#|-------------------------|
G#|------5b-5b-5b-5b-5b-5b--|
E |------8b-8b-8b-8b-8b-8b--|
B |-------------------------|
F#|-2tp---------------------|
B |-2tp---------------------|
pm  .

C#|-------------------------|
G#|-------------------------|
E |-------------------------|
B |-------------------------|
F#|-0-1-3-1-0-1-0--3-5-3-5--|
B |-0-1-3-1-0-1-0-----------|


Solo comes in

Then we have this little  backing bit at points.

C#|-------------------------|
G#|-------------------------|
E |-------------------------|
B |-------------------------|
F#|-0-1-6-3-0-1-0--3-5-3-5--|
B |-0-1-6-3-0-1-0-----------|

And that's as far as I've got.

Hope it helps.
Suggest correction
comments
print report bad tab
5 comments total. Showing first comments.
0 reply
Warlock2019 10 wrote on February 17 2007, 12:00 am

AWESOME finally a tab for the blackening! and from what I can hear its not in drop b... kinda. I think It's in dropb 450 (so a quarter step up like in burn my eyes) though im not great at these things... try it and let me know if you agree?

0 reply
pirate_shanty 185 wrote on February 19 2007, 07:29 am

one word...nice.

i got the exact same intro as you but got lost after that..nice mate.

rekon u could tab aesthetics of hate?

0 reply
pirate_shanty 185 wrote on February 19 2007, 07:38 am

one mistake....


C#|-------------------------|
G#|-------------------------|
E |-------------------------|
B |-------------------------| Into 1st part of the main riff.
F#|-2~~~--1111111111111111--| (So together Play twice)
B |-2~~~--1111111111111111--| There's also a slide at 1 point in the
pm ................ verse.

is the 1st bit.... then it goes



C#|-------------------------|
G#|-------------------------|
E |-------------------------|
B |-------3333333333333333--| Into 1st part of the main riff.
F#|-1~~~--1111111111111111--| (So together Play twice)
B |-1~~~--------------------| There's also a slide at 1 point in the
pm ................ verse.

other than that perfecto...

guest
You may want to rate the tab now too:
select rating
Please do not post tabs as comments. Select "correction" instead!