Oops, an error
Loading. Please wait.

I Am Hell Sonata In C Bass Tab

version 1
version 1

Whole song

Interactive

2,013 views 1 this week
no commentswrite comment
1 2 3 4 5
1 last vote to show rating
add to favorites
launch autoscroll
font size
0
reset
guitar tuner
Autoscroll
slow
fast
+/-
esc
set tempo
stop
Help us to improve Ultimate-Guitar.com Take our survey!
×
Author
Difficulty
intermediate
Band:   Machine Head
Song:   I Am Hell(Sonata In C#)
Album:  Unto The Locust (2011)
Tuning: C# Standard (C#, F#, B, E) tuned 40 cents sharper

right guys this tab is exactly the same layout as my friend Slipknot836's version of
this but he said he is okay with me editing it to transcribe the bass tab version ;)

anyways, here it is. I might be missing a few bits here and there but this is
basically it. enjoy and please rate ;)


Tabbing Legend
Hammer on:   h
Pull off:    p
Slight bend: sb

____________________________________________________________________________

Intro
|-----------------------------------------------------------------|
|-----------------------------------------------------------------|
|-----------------------------------------------------------------|
|-0-0-0-0-0-------0-------0-0-0-0-0-------0-------0-0-0-0-0-------|

|-----------------------------------------------------------------|
|-----------------------------------------------------------------|
|-----------------------------------------------------------------|
|-0-0-0-0-0-------0-------0-0-0-0-0-------0-------0-0-0-0-0-------|

|-----------------------------------------------------------------|
|-----------------------------------------------------------------|
|-----------------------------------------------------------------|
|-0-0-0-0-0-------0-------0-0-0-0-0-------0-------0-0-0-0-0-------|

|-----------------------------------------------------------------|
|-----------------------------------------------------------------|
|-----------------------------------------------------------------|
|-0-0-0-0-0-------0-------0-0-0-0-0-6----3----6----3----6----3----|

____________________________________________________________________________


Both Guitars
|-----------------------------------------------------------------|
|-----------------------------------------------------------------|
|-----------------------------------------------------------------|
|-0-0-0-0-0-------0-------0-0-0-0-0-------0-------0-0-0-0-0-------|

|-----------------------------------------------------------------|
|-----------------------------------------------------------------|
|-------------------------------------------------------0-1-------|
|-0-0-0-0-0-------0-------0-0-0-0-0-------0-------0-1-3-----------|

|-----------------------------------------------------------------|
|-----------------------------------------------------------------|
|-----------------------------------------------------------------|
|-0-0-0-0-0-------0-------0-0-0-0-0-------0-------0-0-0-0-0-------|

Guitar 1
|-----------------------------------------------------------------|
|-----------------------------------------------------------------|
|-----------------------------------------------------------------|
|-0-0-0-0-0-------0-------0-0-0-0-0-6----3----6----3----6----3----|

|-----------------------------------------------------------------|
|-----------------------------------------------------------------|
|-----------------------------------------------------------------|
|-0-0-0-0-0-------0-------0-0-0-0-0-------0-------0-0-0-0-0-------|

|---------------------------|
|---------------------------|
|---------------------------|
|-0-0-0-0-0-----------------|

____________________________________________________________________________


Interlude
|-------------------------10-9-7---|
|-----------------8-7-5----------8-|
|---------8-7-5---------7----------|
|-6-5-3-0-------6------------------|

____________________________________________________________________________

Verse 1
||-----------------------------------|
|o---------------8-7-----------------|
|o-------8-7-5-------10-8-10-8-7-8-7-|
||-0-5-6-----------------------------|

|--------------------------10-9-7---|
|---------------8-7---------------8-|
|-------8-7-5-------10-8-7----------|
|-0-5-6-----------------------------|

|-----------------------------------|
|---------------8-7-----------------|
|-------8-7-5-------10-8-10-8-7-8-7-|
|-0-5-6-----------------------------|

|------------------------------------||
|------------------------------------o|
|------------------------------------o|
|-4--1--1--1--1--1--4--1--1--1--1--1-||

|------------------------------------|
|-4--1--1--1--1--1--4--1--1--1--1--1-|
|------------------------------------|
|------------------------------------|
____________________________________________________________________________


Verse 2
The bass doesn't play the first bar the first time this verse is played
||---------------------------------|
|o---------------------------------|
|o---------------------------------|
||-0---000-000-0---000-3---1---3---|

|---------------------------------|
|---------------------------------|
|---------------------------------|
|-0---000-0---3---1---0---4---3---|

|---------------------------------|
|---------------------------------|
|---------------------------------|
|-0---000-000-0---000-3---1---3---|

|-------------------------10-9-7---||
|-----------------8-7-5----------8-o|
|---------8-7-5---------7----------o|
|-6-5-3-0-------6------------------||

____________________________________________________________________________


Verse 3
Both guitars
||---------------------------------|| x4
|o---------------------------------o|
|o---------------------------------o|
||-7-7-7-7-7-7-7-7-6-6-6-6-8-8-8-8-||

____________________________________________________________________________


Chorus
|---------------------------------|---------------------------------|
|---------------------------------|---------------------------------|
|---------------------------------|---------------------------------|
|-5-5-5-5-5-5-5-5-5-5-5-5-5-5-5-5-|-0-0-0-0-0-0-0-0-0-0-0-0-0-0-0-0-|

|---------------------------------|---------------------------------|
|---------------------------------|---------------------------------|
|---------------------------------|-3-3-3-3-3-3-3-3-2-2-2-2-2-2-2-2-|
|-1-1-1-1-1-1-1-1-1-1-1-1-1-1-1-1-|---------------------------------|

|---------------------------------|---------------------------------|
|---------------------------------|---------------------------------|
|---------------------------------|---------------------------------|
|-1-1-1-1-1-1-1-1-1-1-1-1-1-1-1-1-|-0-0-0-0-0-0-0-0-0-0-0-0-0-0-0-0-|

|---------------------------------|---------------------------------|
|---------------------------------|---------------------------------|
|---------------------------------|---------------------------------|
|-5-5-5-5-5-5-5-5-5-5-5-5-5-5-5-5-|-0-0-0-0-0-0-0-0-0-0-0-0-0-0-0-0-|

____________________________________________________________________________


Repeat Verse 2

Repeat Verse 3

Repeat Chorus

____________________________________________________________________________


Bridge
Guitar 1
|-----------------------------------------------------------------|
|-----------------------------------------------------------------|
|-----------------------------------------------------------------|
|-5-------5-0-0-0-4-------0-0---0-3-------3-0-0-0-2-------0--0--0-|

Guitar 1
|-------------------------------------------------------------------|
|-------------------------------------------------------------------|
|-----------------7---5h7p5-3---2---0-------0-2-3-5-7---------------|
|-1-------1-0-0-0---------------------------------------------------|

____________________________________________________________________________


Verse
|-------------------------10-9-7---|------------------------------------|
|-----------------8-7-5----------8-|------------------------------------|
|---------8-7-5---------7----------|------------------------------------|
|-6-5-3-0-------6------------------|-4--1--1--1--1--1--4--1--1--1--1--1-|

____________________________________________________________________________


Repeat Verse 1

____________________________________________________________________________


Pre-solo
|-------------------------------------------|
|-------------------------------------------|
|-------------------------------------------|
|-5-5-5-5-5-5-5-5-5-5-5-5-5-5-5-5-5-5-5-5-5-|

|-------------------------------------------|
|-------------------------------------------|
|-------------------------------------------|
|-5-5-5-5-5-5-5-5-5-5-5-5-5-5-5-5-5-5-5-5-5-|

|-------------------------------------------|
|-------------------------------------------|
|-2-2-2-2-2-2-2-2-2-2-2-2-2-2-2-2-2-2-2-2-2-|
|-------------------------------------------|

|-------------------------------------------|
|-------------------------------------------|
|-2-2-2-2-2-2-2-2-2-2-2-2-2-2-2-2-2-2-2-2-2-|
|-------------------------------------------|

|-------------------------------------------|
|-2-2-2-2-2-2-2-2-2-2-2-2-2-2-2-2-2-2-2-2-2-|
|-------------------------------------------|
|-------------------------------------------|

|-------------------------------------------|
|-2-2-2-2-2-2-2-2-2-2-2-2-2-2-2-2-2-2-2-2-2-|
|-------------------------------------------|
|-------------------------------------------|

____________________________________________________________________________


Solo
Guitar 1
|---------------------------------|---------------------------------|
|---------------------------------|---------------------------------|
|-3---0-0-5---0-0-0-0-6---5---3---|-3---0-0-5---0-0-6---5---8---6---|
|---------------------------------|---------------------------------|

____________________________________________________________________________


Repeat Verse 3

Repeat Chorus

____________________________________________________________________________


Breakdown
Both guitars
|---------------------------------|
|---------------------------------|
|---------------------------------|
|-1-0-----1-0-0-0-1-0-----4sb-----|

|---------------------------------|
|---------------------------------|
|---------------------------------|
|-1-0-----1-0-0-0-1-0-----4sb-----|

|---------------------------------|
|---------------------------------|
|---------------------------------|
|-1-0-0-0-1-0-0-0-1-0-0-0-4sb-----|

|---------------------------------|
|---------------------------------|
|---------------------------------|
|-1-0-0-0-1-0-0-0-1-0-0-0-4sb-----|

____________________________________________________________________________


Acoustic section
The bass plays nothing here

____________________________________________________________________________


Guitar 2 repeats Chorus 1 whilst Guitar 1 plays the rhythm below

|-------------------------------------------------------------------|
|-------------------------------------------------------------------|
|-------------------------------------------------3-------2---------|
|-5-------5---5---0-------0-------1-------1-------------------------|

|-------------------------------------------------------------------|
|-------------------------------------------------------------------|
|-------------------------------------------------------------------|
|-1-------1---1---0-------0-------5-------5-------0-----------------|

____________________________________________________________________________


Repeat Bridge until fade out

______________________________________________________________________
Suggest correction
Give kudos to tab author, rate the tab!
1 2 3 4 5
comments
print report bad tab
guest
You may want to rate the tab now too:
select rating
Wanna post a correction for this tab? Suggest correction