Oops, an error
Loading. Please wait.

None But My Own Tab

version 3
version 3

Whole song

Interactive

2,233 views 3 this week
no commentswrite comment
1 2 3 4 5
x 3
add to favorites
launch autoscroll
font size
0
reset
how to read this tab
guitar tuner
×
Best way to learn
"None But My Own"
Autoscroll
slow
fast
+/-
esc
set tempo
stop
Author
----------------------------------------------------------------------------
                None but my own-Machine Head
----------------------------------------------------------------------------
Tabbed by: Joel Keane (jk41)
Email:

Tuning:Drop C#
intro- clean
D#|-------------------------------------------------------|
A#|-------------------------------------------------------|
F#|-------------------------------------------------------|
C#|-----2-3-2-------2-3---2--------2-3-2-------2-3-----2--|
G#|---2-------2---2--------------2-------2---2------------|
C#|-2-----------2-------2------2-----------2-------2h3----|

Distortion   x3                 n.h   4th time
D#|----------------------------------]--------------------------------------|
A#|----------------------------------]-------------------------slide hand---|
F#|------------------------------+---]-------------------------while muting-|
C#|--2-2-2-2--2-2-2--2-2-3--0h1--5---]--2-2-2-2--2-2-2--2-2-3-----strings---|
G#|--2-2-2-2--2-2-2--2-2-3--0h1------]--2-2-2-2--2-2-2--2-2-3--xxxxxxxxxx---|
C#|--2-2-2-2--2-2-2--2-2-3--0h1------]--2-2-2-2--2-2-2--2-2-3--xxxxxxxxxx---|

 chorus riff            n.h x3   4th time
D#|--------------------------]----------------------------------------------|
A#|--------------------------]----------------------------------------------|
F#|----------------------+---]----------------------------------------------|
C#|-2----2----2----3-----5---]--2----2----2---------------------------------|
G#|-2----2----2----3-0h1-----]--2----2----2----3-22-11----------------------|
C#|-2-00-2-00-2-00-3-0h1-----]--2-00-2-00-2-00-3-22-11---0h2~~~-------------|
pm    --   --   --                --   --   --   -- --

verse   x2
D#!-------------------------------------------------------------------------|
A#|-------------------------------------------------------------------------|
F#|----------------------------------------------------------------------+--|
C#|------0-2-3-22---22-------0-2-3-22~-------0-2-3-22---22-------0-2-3-2-5--|
G#|-------------------------------------------------------------------------|
C#|0h2-0----------2----0h2-0-----------0h2-0----------2----0h2-0------------|
pm     -          -        -               -          -        -

then chorus riff then this x4
D#|--------------------------------------------------------------------------|
A#|--------------------------------------------------------------------------|
F#|--------------------------------------------------------------------------|
C#|--------------------------------------------------------------------------|
G#|--------------------------------------------------0-1-2-------------------|
C#|-3-0-1-2~0-1-2~0-1-2-333-3-0-1-2~-0-1-2~-0-1-2-3--------------------------|

sorry dont have solo and backing riff, started tabbing and realised i didnt know it.
 Though this still is a bit more thorough than the other versions
3rd verse
D#|-------------------------------------------------------------------------|
A#|-------------------------------------------------------------------------|
F#|-------------------------------------------------------------+-----------|
C#|-------0-2-3-2~-------0-2-3-2~-------0-2-3-2~------0-2-3-2---5-----------|
G#|-------------------------------------------------------------------------|
C#|-0h2-0----------0h2-0----------0h2-0---------0h2-0-----------------------|
pm      -              -              -             -          n.h

thru the chorus and post chorus then the outro

D#!--------------------------------------------------------------------------|
A#|--------------------------------------------------------------------------|
F#|--------------------------------------------------------------------------|
C#|--------------------------------------------------------------------------|
G#|------------------------------------------------------------5\------------|
C#|-0h2222220h2222220h22222200232-0h2222220h2222220h2222220h22---------------|
       pm---   -----  -----------    -----   -----   -----   -
D#|--------------------------------------------------------------------------|
A#|--------------------------------------------------------------------------|
F#|--------------------------------------------------------------------------|
C#|-------------------------------------------------------9-7-10\------------|
G#|-------------------------------------------------------7-5-8-\-232--------|
C#|-0h2222220h2222220h22222200232-0h2222220h2222220h222222--------232--------|
       -----   -----   ----------    -----   -----   -----        ---

************************************

| /   slide up
| \   slide down
| h   hammer-on
| p   pull-off
| ~   vibrato
| +   harmonic
| x   Mute note
| b   Bend
| pb  Pre-bend
| br  Bend release
| pbr Pre-bend release
| brb Bend release bend

************************************
Suggest correction
Give kudos to tab author, rate the tab!
1 2 3 4 5
comments
print report bad tab
guest
You may want to rate the tab now too:
select rating
Wanna post a correction for this tab? Suggest correction