Oops, an error
Loading. Please wait.

The Burning Red Bass Tab

version 1
version 1

Whole song

Interactive

1,061 views 1 this week
no commentswrite comment
1 2 3 4 5
please rate
add to favorites
launch autoscroll
font size
0
reset
guitar tuner
Tab Pro tools
  • play this tab
  • loop segment
  • change instrument
  • show fretboard
  • metronome
×
Best way to learn
"The Burning Red"
Autoscroll
slow
fast
+/-
esc
set tempo
stop
Contributor
Difficulty
novice
Band: Machine Head
Song: The Burning Red
Album: The Burning Red
Bassist: Adam Duce

The other tabs for this song aren’t 100% correct, this one is, even the timing!!

First rest until (1:55)
Adam plays his low B with volume down, and than slowly turns his volume up. After you 
the E (it has some echo/delay effects on it(you can shake the neck of your bass if you 
he puts his volume down again, listen for timing.
Intro: (1:55)
G|---------------------|
D|---------------------|
A|---------------------|
E|---------------------|
B|-0~-volume-up----5~~-|

Chorus: (2:46)
G|---------------------------------------------------------------------|
D|---------------------------------------------------------------------|
A|---------------------------------------------------------------------|
E|-9999999999999999-7777777777777777-5555555555555555-4444444444444444-|
B|---------------------------------------------------------------------|

Fill: (3:32)
G|---------------------------------------------------------------------|
D|---------------------------------------------------------------------|
A|---------------------------------------------------------------------|
E|-2---2---2-2-22-2-4---4---4-4-44-4-5---5---5-5-55-5-7---7---7-7-77-7-|
B|---------------------------------------------------------------------|

Chorus varition: (3:47)
G|------------------------------------------------------------------------------|
D|------------------------------------------------------------------------------|
A|------------------------------------------------------------------------------|
E|-9-9-9-99-9-99/121212-7-7-7-77-7-77/121212-5-5-5-55-5-55/999-4-4-4-44-4-44-44-|
B|------------------------------------------------------------------------------|

End: (4:30)
G|---------------------------------------------------------------------|
D|---------------------------------------------------------------------|
A|---------------------------------------------------------------------|
E|-----------------------------------5~---------------4~---------------|
B|-2~---------------0~-------------------------------------------------|

If you have a 4-string bass and you want to play the song with the same tuning as Adam 
here is the version for that. Adam plays with a 4-string as well ( E B F# B)

Intro: (1:55)
E |---------------------|
B |---------------------|
F#|---------------------|
B |-0~-volume-up----5~~-|

Chorus: (2:46)
E |---------------------------------------------------------------------|
B |---------------------------------------------------------------------|
F#|-7777777777777777-5555555555555555-3333333333333333-2222222222222222-|
B |---------------------------------------------------------------------|

Fill: (3:32)
E |---------------------------------------------------------------------|
B |---------------------------------------------------------------------|
F#|-0---0---0-0-00-0-2---2---2-2-22-2-3---3---3-3-33-3-5---5---5-5-55-5-|
B |---------------------------------------------------------------------|

Chorus varition: (3:47)
E |------------------------------------------------------------------------------|
B |------------------------------------------------------------------------------|
F#|-7-7-7-77-7-77/101010-5-5-5-55-5-55/101010-3-3-3-33-3-33/777-2-2-2-22-2-22-22-|
B |------------------------------------------------------------------------------|

End: (4:30)
E |---------------------------------------------------------------------|
B |---------------------------------------------------------------------|
F#|-----------------------------------3~---------------2~---------------|
B |-2~---------------0~-------------------------------------------------|
comments
We did not receive enough feedback on this tab! Please rate:
print report bad tab
1 2 3 4 5
I want to post or [tab]
guest
You may want to rate the tab now too:
select rating
Please do not post tabs as comments. Select "correction" instead!