Oops, an error
Loading. Please wait.

The Burning Red tab

version 2
version 2

Whole song

Interactive

591 views 1 this week
1 commentread comment
1 2 3 4 5
1 last vote to show rating
add to favorites
×
Save as Personal and add changes to this tab that will be seen only by you. Learn more ›
×
You can save this tab as Personal to edit and correct it or add notes. All changes will be seen only by you. Learn more »
launch autoscroll
font size
0
reset
how to read this tab
guitar tuner
edit
Autoscroll
slow
fast
+/-
esc
set tempo
stop
Riff 1
|---------------------------------------------------------|
|-------8------------8-------------5--------------5-------| 
|---------------------------------------------------------|       
|-----9------------7-------------5-------------4----------|       
|---7------------5-------------3-------------2------------|       
|---------------------------------------------------------|       
                                                                  
|-------------------------------------------------------------|   
|-------8------------8-------------5--------------5-------3---|   
|-------------------------------------------------------------|   
|-----9------------7-------------5-------------4--------------|
|---7------------5-------------3-------------2----------------|   
|-------------------------------------------------------------|

I see the sun begin to rise
And I'm blinded too
I've seen the world thru
Jaded eyes that I'm crying thru
I've watched the darkness hypnotize
And confided

Riff 2
|---------------------------------------------------------|
|---------------------------------------------------------|
|--888888888888888888888888888888888/1010101010/11111111--|
|--888888888888888888888888888888888/1010101010/11111111--|
|--666666666666666666666666666666666/8-8-8-8-8-/9-9-9-9---|
|---------------------------------------------------------|

Hold on i'm falling...cant breathe anyomore
an ocean has opened, these scars need to heal over

Riff 1
|---------------------------------------------------------|
|-------8------------8-------------5--------------5-------| 
|---------------------------------------------------------|       
|-----9------------7-------------5-------------4----------|       
|---7------------5-------------3-------------2------------|       
|---------------------------------------------------------|       
                                                                  
|-------------------------------------------------------------|   
|-------8------------8-------------5--------------5-------3---|   
|-------------------------------------------------------------|   
|-----9------------7-------------5-------------4--------------|
|---7------------5-------------3-------------2----------------|   
|-------------------------------------------------------------|

Caress the needle prick in my skin
The tears fell like rain
I've rode the Phoenix as she glides
And I've gone insane
I've seen the light of suicide
And I'm dying

Riff 2
|---------------------------------------------------------|
|---------------------------------------------------------|
|--888888888888888888888888888888888/1010101010/11111111--|
|--888888888888888888888888888888888/1010101010/11111111--|
|--666666666666666666666666666666666/8-8-8-8-8-/9-9-9-9---|
|---------------------------------------------------------|

Hold on i'm falling...cant breathe anyomore
an ocean has opened, these scars need to heal over

Riff 3

|-------------------------------------------------|
|-------------------------------------------------|
|-------------------------------------------------|
|-------11-----------9-----------7------------6---|
|-------11-----------9-----------7------------6---|
|-------11-----------9-----------7------------6---|

Colder and colder, Just hold onto me 

Riff 4
|---------------10---7---8---7----5---3----7----3----0--|
|---5---7---8-------------------------------------------|
|-------------------------------------------------------|
|-------------------------------------------------------|
|-------------------------------------------------------|
|-------------------------------------------------------|
woo woo woooo, woo woo woooo ect

Well thats what i came up with please rate this tab
Thanks 
Suggest correction
Creating personal tab
Creating personal tab
You can edit any tab online and save it as your Personal.

You can edit, replace or remove any tab part or add personal notes – all changes will be seen only by you.

Personal tabs can be accessed anytime from any device, even offline.
Learn more »
Give kudos to tab author, rate the tab!
1 2 3 4 5
comments
print report bad tab
1 comment total.
0 reply
V2freak 10 Mar 27, 2012 06:09 PM

Excellent tab, but I don't agree with the chorus; it sounds a bit off. Try:


------------------------------------
------------------------------------
---66---44---22---------------------
---66---44---22---------------------
---44---22---00---66----------------
------------------66----------------

And for the interlude

------------------------------------
------------------------------------
---66---88---99---11--11------------
---xx---xx---xx---x---x-------------
---44---66---77---9---9-------------
------------------------------------ x1

And then after that, replace the 9/11s at the end with 11/13s

guest
Wanna post a correction for this tab? Suggest correction