Oops, an error
Loading. Please wait.

Esperando Tab

33 views 1 this week
no commentswrite comment
1 2 3 4 5
3 more votes to show rating
add to favorites
launch autoscroll
font size
0
reset
how to read this tab
guitar tuner
×
Best way to learn
"Esperando"
Autoscroll
slow
fast
+/-
esc
set tempo
stop
Cuando las notas llevan una 'x' al final, quiere decir que continua, 
son como puntos suspencivos. Es decir el tiempo de la nota continua en ese caso.

Verso: (Todo el tiempo se tocan las mismas notas).

   Estoy  esperando, no demores  tanto
    [ch]D       [ch]Bb        [ch]C       RE DO/RE RE[/ch] DO[/ch] RE[/ch]   
e -------|---------|-----------|------------------|
B -------|---------|-----------|------------------|
G -------|---------|-----------|------------------|
D ---7---|--3-3xx--|---5-5xx---|-7-7-5/7-7-7-5-7--|
A ---5---|--1-1xx--|---3-3xx---|-5-5-3/5-5-5-3-5--|
E -------|---------|-----------|------------------|
 
   que mi paciencia se está acabando.
   No dudes en llevarme, que cerca tuyo quiero estar, 
   la distancia que nos separa se acerca cada día más

Coro: 

    [ch]D  [ch]E    [ch]F  MI   [ch]G  MI[/ch]   SOL[/ch]       LA[/ch]     LA#[/ch]
e --------|---------|---------|--------|--------------------|
B --------|---------|---------|--------|--------------------|
G --------|---------|---------|--------|--------------------|
D ---7----|---10----|---12----|--12xx--|---7xx----8xx-------|
A ---5----|----8----|---10----|--10xx--|---7xx----8xx-------|
E ------0-|-------0-|-------0-|--------|---5xx----6xx-------|

     ah! ah!..                           Te veo en el, cielo,
     ah! ah!..                           te siento en el viento,
     ah! ah!..                           tu cara está en las nubes,
              es así,                    desde que te conocí

Verso:   No elijas a otro, sólo a mí y a nadie más, 
         que mi camino y el tuyo se tienen que encontrar.
         Te siento cerca mío, aunque algo lejos estás,
         no te preocupes, yo te saldré a buscar.
Coro: ......

Intermedio:

     [ch]D       [ch]F       SIb[/ch]        LA[/ch]       [ch]C[/ch]
e --------|--------|----------|--------|-------|
B --------|--------|----------|--------|-------|
G --------|--------|---3--3---|--------|-------|
D ---7----|---3----|---3---3--|----2---|---5---|
A ---5----|---3----|---1------|----0---|---3---|
E --------|---1----|----------|--------|-------|


e ------------------------------------------------------------|
B ------------------------------------------------------------|
G ----12b14-12--12b14-12--/9--5---12b14-12--12b14-12--/9--12--|
D ------------------------------------------------------------|
A ------------------------------------------------------------|
E ------------------------------------------------------------|
  Se repite 2 veces. (Esta parte no es igual a la que toca el pollo, pero igual suena cabrona)

   Sácame de cualquier forma, pero hazlo rápido y en soledad, 
   que los minutos van pasando, acercándonos un poco más.

Solo:
e ----------------------------------------------------|
B ----------------------^---^-------------------------|
G ---/7-7-10--10-12-12-13--13-13-12-10-7-7/9-9/12-----|
D ----------------------------------------------------|
A ----------------------------------------------------|
E ----------------------------------------------------|
   Se repite 2 veces.

e ------------------------------------------------^---|
B --/9b10-13--/9b10-13--/9b10-13--13/15-15-15/17-17---|
G ----------------------------------------------------|
D ----------------------------------------------------|
A ----------------------------------------------------|
E ----------------------------------------------------|

e ------------------------------------------------^------^--------^--|
B -/9b10-13--/9b10-13--/9b10-13--13/15-15-15/17-17--17-17--17-15-15--|
G -------------------------------------------------------------------|
D -------------------------------------------------------------------|
A -------------------------------------------------------------------|
E -------------------------------------------------------------------|

El final se lo ponis voz. Lo que sigue del solo es pura mierda asi que podis cuentiar,
 o bien, cortay antes la canción.
  =)
Suggest correction
Give kudos to tab author, rate the tab!
1 2 3 4 5
comments
print report bad tab
guest
You may want to rate the tab now too:
select rating
Wanna post a correction for this tab? Suggest correction