Oops, an error
Loading. Please wait.

Jak To Dziewczyna Chords

2,325 views 6 this week
no commentswrite comment
1 2 3 4 5
please rate
add to favorites
launch autoscroll
font size
0
reset
transpose
0
reset
simplify chords
display chords
guitar tuner
Autoscroll
slow
fast
+/-
esc
set tempo
stop
Help us to improve Ultimate-Guitar.com Take our survey!
×
Author
-----------------------------------------------------------------------------
                             Jak to dziewczyna - Maciej Malenczuk
-------------------------------------------------------------------------------

Tabbed by: n0r
Email: n0r@o2.pl

Tuning: E standard

Niektóre akordy:

Galt:           c#m7-5           Dsus7        Hm7-5         Hmaj-7      Am/G
e|--------      ---------        -------     ---------     ---------   ---------
B|---4----      ---5-----        --5----     ----3----     ----4----   ---------
G|---4----      ---4-----        --5----     ----2----     ----2----   ---5-----
D|---3----      ---5-----        --7----     ----3----     ----4----   ---7-----
A|--------      ---4-----        --5----     ----2----     ----2----   ---7-----
E|---3----      ---------        -------     ---------     ---------   ---3-----

Akordy:

       Am7          Dsus7
To byl ubogi, mlody muzyk.

            Am7           Dsus7
Pusta mial kieszen, pelna dusze.

         Dm7           Galt        Cmaj7  D#m7-5  Emaj7
Stare pianino w domu mial i na tym instrumencie gral.


   Dm7       G          Em
Az raz, gdy zasiadl do pianina

   Cm7       F         Bmaj7        E
Ze strun zrodzila sie dziewczyna

Am           Am/G       F    Hm7-5 *                E
Zrodzila sie z piosenki nut, z melodii, która muzyk wiodl.


Am                     Hm7-5 *        E
Mowila mu ze kocha go, ze nigdy nikt, ze tylko on.

Dm7         Galt      Cmaj7      C#m7-5            
La la la la la jak to dziewczyna.

          Dm7         E               Am     Am/G  F
ze go tak bardzo bylo brak, ze nie do wiary, ze az tak.

       Hmaj-7 *    E         Ealt
Mowila tak, jak to dziewczyna.

Am7                    Hmaj-7 *    E
Tulila sie do jego rak i w oczy mu patrzyla wciaz.

Dm7         Galt      Cmaj7       C#m7-5
La la la la la jak to dziewczyna.

         Dm7         E                Am  Am/G  F
Pokochal do utraty tchu, tak w glowie zawrocila mu.

          Hm7-5 * E       Am         Ealt  Am
Jak to dziewczyna, jak to dziewczyna.

I tak trzy razy to samo.

* Ultimate guitar zmienia dzwiek H na B, w miejscach z gwiazdka nalezy grac H
Suggest correction
Give kudos to tab author, rate the tab!
1 2 3 4 5
comments
print report bad tab
guest
You may want to rate the tab now too:
select rating
Wanna post a correction for this tab? Suggest correction