Oops, an error
Loading. Please wait.

Swieto Kobiet Tab

1,136 views 1 this week
no commentswrite comment
1 2 3 4 5
3 more votes to show rating
add to favorites
launch autoscroll
font size
0
reset
how to read this tab
guitar tuner
Autoscroll
slow
fast
+/-
esc
set tempo
stop
Help us to improve Ultimate-Guitar.com Take our survey!
×
AUTHOR:        MACIEJ MALE?CZUK
TITLE:         ?WI?TO KOBIET
TRANSCRIPTION: PATRYK "PAZI" MAZUREK
E-MAIL:        pazee@poczta.fm
COMMENTS:      APPRECIATED  :)))
KIND OF TAB:   CHORDS

	Sorry, ale "bicie" musicie sobie sami rozpracowa?.

TUNING: OPEN-D


INTRO

* VERSE:

      eadd9			  C5   H
W tym dniu nieistniej?cym ?wi?ta kobiet
   eadd9		         C5   H
A jednak w?a?nie ten dzie? si? pami?ta
  eadd9 		      C5  H
Doprawdy sk?adam t? wi?zank? Tobie
  G    E   C    H
Z wyrzut?w sumienia


* CHORUS:

           eadd9			D5
Niech?e na gorsze nic ju? nigdy si? nie zmieni
          D5			   eadd9
I nic nie ka?e ci by? tward? i bez wad
            eadd9		     D5
Miej zawsze du?o dobrych rzeczy do jedzenia
   H5	   A5     Fis5         H5  A5  Fis5
Bezpieczny w?asny ?wiat


C?? jeszcze tylko bukiet szczerych ch?ci
Co nie jest wi?cej wart ni? ?wiartka w bramie
Niech nic ju? nigdy z?ego si? nie ?wi?ci
?wi?te niech - ?wi?ci si?


Nie telep si? samotnie w czterech ?cianach
W ka?dy odg?os si? nie ws?uchuj jak ten pies
Niech tylko s?o?ce w Twoje okno sko?nie wpada
Nie tylko ci?gle deszcz


A ?ycie Twoje niech?e b?dzie ?ywe
I pe?ne mi?ych ?ywych niespodzianek
I nie bierz dobrych monet za fa?szywe
Mimo, ?e, mimo, ?e


Ubieraj si? w kolory - nie na czarno
I niech telefon dzwoni bodaj ca?y dzie?
I nie tra? wiary - niech na Twoj? przysz?o?? ca??
Nie padnie nigdy cie?


W tym dniu nieistniej?cym ?wi?ta kobiet
A jednak w?a?nie ten dzie? si? pami?ta
Doprawdy sk?adam t? wi?zank? Tobie
Z wyrzut?w sumienia


INTRO:

D ||-----------9------------------------|------------9----------------------|
A ||-----10---------10------------------|------10---------10----------------|
F#||--10----10---10---------10---9------|---10----10---10---------10---9----|
D ||------------------------10---9------|-------------------------10---9----|
A ||------------------------10---9------|-------------------------10---9----|
D ||------------------------10---9------|-------------------------10---9----|

D |-------------9--------------------|------------------------|
A |-------10---------10--------------|------------------------|
F#|----10----10---10--------10---9---|----5-5-2---10--10-9----|
D |-------------------------10---9---|----5-5-2---10--10-9----|
A |-------------------------10---9---|----5-5-2---10--10-9----|
D |-------------------------10---9---|----5-5-2---10--10-9----|

D |-----------9-----------------|---------------------------9----|
A |-----------10----------------|---------------------------10---|
F#|--10---10--------------------|------------------10---10-------|
D |-------------------------12--|-----------12-------------------|
A |-------------------------12--|-----------12-------------------|
D |----------------12---12------|--12---12-----------------------|

D |-----------9-----------------|-----------------------------------|
A |-----------10----------------|-----------------------------------|
F#|--10---10--------------------|-----------------------------------|
D |-------------------------12--|--9----7----4-----9-x---7-x---4----|
A |-------------------------12--|--9----7----4-----9-x---7-x---4----|
D |----------------12---12------|--9----7----4-----9-x---7-x---4----|

CHORDS:


	* VERSE:

           eadd9   C5    H       G    E    C     H
	D |--9-----------9----|-----------------------|
	A |--10----------9----|-----------------------|
	F#|--10----------9----|--5----2----10----9----|
	D |--9-----10----9----|--5----2----10----9----|
	A |--9-----10----9----|--5----2----10----9----|
	D |--9-----10----9----|--5----2----10----9----|

	* CHORUS:

           eadd9   D5      H5   A5   Fis5
	D |--9-----------|-----------------|
	A |--10----------|-----------------|
	F#|--10----------|-----------------|
	D |--9-----12----|--9----7----4----|
	A |--9-----12----|--9----7----4----|
	D |--9-----12----|--9----7----4----|

TUNING:


E - D na 12                   (D)
H - z E na 5, A na 12         (A)
G - z H na 3                  (F#)
D - z G na 4                  (D)
A - z D na 5                  (A)
E - z A na 7, z D na 12       (D)
Suggest correction
Give kudos to tab author, rate the tab!
1 2 3 4 5
comments
print report bad tab
guest
You may want to rate the tab now too:
select rating
Wanna post a correction for this tab? Suggest correction