Oops, an error
Loading. Please wait.

Little Moon Tab

724 views 12 this week
no commentswrite comment
1 2 3 4 5
x 4
add to favorites
launch autoscroll
font size
0
reset
how to read this tab
guitar tuner
Autoscroll
slow
fast
+/-
esc
set tempo
stop
Author
Difficulty
Capo
intermediate
1st fret
About this tab version
Capo 1st Fret. It has the chords G, Bm, C, and D. Was this info helpful? Yes No
[Intro]

e|---------------------------------------------------------------------------|
B|------------------------3--------------------------------------------------|
G|----------0-------------4-----------0----------0---------------------------|
D|--------0-------------4-----------2----------4-----------------------------|
A|-------------------2------------3----------5-------------------------------|
E|-----3---------------------------------------------------------------------|

e|---------------------------------------------------------------------------|
B|--------------------------3------------------------------------------------|
G|--------0----------------4-----------0----------0--------------------------|
D|-------0---------------4-----------2----------4----------------------------|
A|-------------------2-------------3----------5------------------------------|
E|-----3---------------------------------------------------------------------|
Suggest correction
comments
print report bad tab
guest
You may want to rate the tab now too:
select rating
Wanna post a correction for this tab? Suggest correction