Oops, an error
Loading. Please wait.

Otherside Tab

version 1
version 1

Whole song

32,561 views 15 this week
1 commentread comment
1 2 3 4 5
accurate
x 12
add to favorites
launch autoscroll
font size
0
reset
how to read this tab
guitar tuner
Autoscroll
slow
fast
+/-
esc
set tempo
stop
Help us to improve Ultimate-Guitar.com Take our survey!
×
Author
Difficulty
lars23 45
novice
So this is the tab... sounds best if you finger-pick it... It's the same as the tab for 
Otherside by the Chili Peppers, but Macklemore sampled it...


------------------------------------|
------------------------------------|
------------------------------------|
---------7-7-9-7--------------------|
---7-7-7---------10-7---5-5-5-------|
------------------------------------|


and that's the same for the whole song:)
Suggest correction new What's this?
You can suggest a correction to this tab. Community and Mods will review your correction and vote to approve or reject it.
comments
print report bad tab
1 comment total.
0 reply
dudefromthe206 164 wrote on May 17 2011, 11:30 pm

Comes in on "took a sip" 0:37

D7--7--7-7-7------5---5------5---5
G-5--5--5-5-5------5---5------4---4-5-4
B--5--5----6-6-6-5--5---5-5-3--3---3
e

guest
You may want to rate the tab now too:
select rating
Please do not post tabs as comments. Select "correction" instead!