Oops, an error
Loading. Please wait.

Contra Reloj Tab

19 views 1 this week
no commentswrite comment
1 2 3 4 5
3 more votes to show rating
add to favorites
launch autoscroll
font size
0
reset
how to read this tab
guitar tuner
×
Best way to learn
"Contra Reloj"
Autoscroll
slow
fast
+/-
esc
set tempo
stop
Riff 1
   D                G             A
E-------------------3----3-----3-------------------------
A---------------------------------0----0----0-0----0-----
D--0-----0-----0-----------------------------------------Bis x 2
G------------------------------------2----2------2-------
B-----3-----3----------2----2-------2----2------2----2---
E----2-----2----------2----2-----------------------------


Riff 2

E----------------------------------------------
A--0-0---0-3-0-------3-0-------3-0-------------
D--2-2---2-2-2--2-2--2-2--2-2--2-2-------------  Bis x 4
G--2-2---2-2-2--2-2--2-2--2-2--2-2-------------
B--2-2----------3-3-------3-3------------------
E----------------------------------------------

Intro:

Riff 1

A Riff 2

Riff 2
Corriendo, contrarreloj
Los segundos, son agujas, en la espalda
Riff 2
[ch]A suerte, esta A[/ch] su favor         G
Y esto a ti, no, no te hace gracia
      A
Contrarreloj


Riff 2
Corriendo, contrarreloj
Es posible que no llegues, no es seguro
Riff 2
Se agita, tu respiración
Puedo ver que estas saliendo del apuro

G      A       G       A         Riff 1
Contrarreloj... Contrarreloj... Corriendo, contrarreloj
         Riff 1
Ahhhh... Corriendo, contrarreloj
         Riff 1
Ahhhh... Corriendo, contrarreloj.


Solo (RIFF 2 )


G      A       G       A         Riff 1
Contrarreloj... Contrarreloj... Corriendo, contrarreloj
         Riff 1
Ahhhh... Corriendo, contrarreloj
         Riff 1
Ahhhh... Corriendo, contrarreloj.
         Riff 1
Ahhhh... Corriendo, contrarreloj
         Riff 1
Ahhhh... Corriendo, contrarreloj.


Riff 2
      Contra reloj, siempre contra reloj
A ningun lado contra reloj.
Suggest correction
Give kudos to tab author, rate the tab!
1 2 3 4 5
comments
print report bad tab
guest
You may want to rate the tab now too:
select rating
Wanna post a correction for this tab? Suggest correction