Oops, an error
Loading. Please wait.

E.m.p. Tab

by MAD
15 views 1 this week
no commentswrite comment
1 2 3 4 5
3 more votes to show rating
add to favorites
launch autoscroll
font size
0
reset
how to read this tab
guitar tuner
×
Best way to learn
"E.M.P."
Autoscroll
slow
fast
+/-
esc
set tempo
stop
Intro:

Riff 1
1|---------------------------------|----|
2|---------------------------------|----|
3|---------------------------------|----|
4|---------------------------------|----|
5|------5----------------5---------|-b7-|
6|-5h6h7-5h6h7-5-0--5h6h7-5h6h7-5-0|----|

|PARTE MAS USADA
1|-----------------|---------|-----------------|-------------|
2|-----------------|---------|-----------------|-------------|
3|-----------------|---------|-----------------|-------------|
4|-----------------|-7-------|-----------------|-7-----------|
5|------5----------|-5-7-5-7-|------5----------|-5-7-5-7-5-2-|
6|-5h6h7-5h6h7-5-0-|---5-3-5-|-5h6h7-5h6h7-5-0-|---5-3-5-3-0-|


Riff 2
6|-0-3bv-0-03bv-|

Riff 3                   Fill
1|----------------------|----------------|
2|----------------------|----------------|
3|----------------------|----------------|
4|--------------7-7-----|-7--------------|
5|--------------5-5-7-7-|-5-7-5-7-5-2--2-|
6|-0-3bv-0-03bv-----5-5-|---5-3-5-3-0--0-|

[ch]E5[/ch]
Cae la lluvia una vez más  Riff 2
Sube el agua sin parar  RE5-LA5-SOL5-LA5-SOL5-MI5
Nace el Rió Santa Fe       Riff 2
Por Cabildo nadaré   RE5-LA5-SOL5-LA5-SOL5-MI5

[ch]G5[/ch]
Mientras Belgrano se inunda en un caos
[ch]D5                    SI5[/ch]
Aníbal en San Pablo goza sin parar, Re bien


Riff 1: PARTE MAS USADA

[ch]E5[/ch]
Todo es joda, diversión Riff 2
El ortiba no aporto     RE5-LA5-SOL5-LA5-SOL5-MI5
Chacho chocho hoy quedo Riff 2
A su campaña esto ayudo RE5-LA5-SOL5-LA5-SOL5-MI5

[ch]G5[/ch]
Y en Caballito flotan soretitos
[ch]D5                    SI5[/ch]
Guernica con la pica Y la impotencia está

Riff 3
Entre mierda y polución
Nos vendieron un buzón
Otro garca que asumió

Riff 3            Fill
Como Bush así grito: I've got the power RE5-LA5


SOLO

Riff 1: PARTE MAS USADA

[ch]E5[/ch]
Cuatro vuelos fueron hoy Riff 2
Y un pibe en Lomas ¡no!  RE5-LA5-SOL5-LA5-SOL5-MI5
Basta de resignación     Riff 2
Busquen una solución     RE5-LA5-SOL5-LA5-SOL5-MI5

[ch]G5[/ch]
La gente siente que esta bajo de un puente
[ch]D5                    SI5[/ch]
Y los de arriba nos viven garcando encima

Riff 3
Entre mierda y polución
Nos vendieron un buzón
Otro garca que asumió
Todo el queso repartió
Con amigos y shandon
Con sus hijos y su amor
Con los gatos de ocasion
Y el congreso festejo
[ch]D5          LA5[/ch]
Y un decreto se aprobó
[ch]D5              [ch]A5[/ch]  [ch]G5[/ch]-MI5[/ch]
Para el pueblo no hay porción


¡I've got the power!

FINAL: Riff 1
Suggest correction
Give kudos to tab author, rate the tab!
1 2 3 4 5
comments
print report bad tab
guest
You may want to rate the tab now too:
select rating
Wanna post a correction for this tab? Suggest correction