Oops, an error
Loading. Please wait.

El Boxeador Bass

by MAD
40 views 1 this week
no commentswrite comment
1 2 3 4 5
3 more votes to show rating
add to favorites
launch autoscroll
font size
0
reset
guitar tuner
×
Best way to learn
"El Boxeador"
Autoscroll
slow
fast
+/-
esc
set tempo
stop
Escuchar bien la cancion para ssacar el ritmo los tiempos

Riff 1
1|-------------------------|
2|-------------------------|
3|-------------------------|
4|-0-0-0-0-0-0-0-0-0-0-0-0-|

Riff 2
1|-------------|-------------|
2|-------------|-------------|
3|-0-0-0-0-3-0-|-0-0-0-0-3-0-|
4|-------------|-------------|

Riff 3
1|-----------------------------|
2|-----------------------------|
3|-77-77-77--7-7-7-7-7-7-7-7-7-|
4|-----------------------------|

Riff 4
1|-----------------------------|
2|-----------------------------|
3|-2--2-2-2-2-2--5-------5-5-5-|
4|-----------------------------|


Riff 5 (Durante el solo)
1|---------------------|
2|---------------------| Esto lo hace 2 veces, son los dos corte
3|---------------------|
4|-5-5-5-5-5-5-5-5-5-0-|

1|------------------------------------------------------------------|
2|------------------------------------------------------------------|
3|------------------------------------------------------------------|
4|-5-5-5-5-5-5-5-5-5-5-5-5-5-5-5-5-5-5-7-7-7-7-7-7-7-7-7-10-10-10-0-|

Riff 1
Esta es la historia de un hombre
a quien su vida jamás,
le dio una gran alegría
y solo golpes nomás.

Riff 2
Guarda dulces recuerdos,
de sus amigos, sus amores

Riff 3
su tierra natal, bello paisaje austral.

Riff 4
no le pidas que sea un super-hombre
es tan solo un boxeador.
¡Un boxeador!.

Repite Todo

el boxeador,
sube al ring a pelear,
pero la lucha continua
es su vida real.

lo avasallan con flashes, con reportajes,
cuando el jurado dijo:-¡ ganador!.

el pobre boxeador.

pero cuando pierde es uno mas del
montón,
¡ya no es un campeón!

¡boxeador!
¡vamos!

Riff 5 (Durante el solo)

el boxeador,
hoy debe recuperar,
la corona perdida,
¡cuanta gloria de cristal!
lo hunde sin pena, sin compasión
toda esa prensa, que en un tiempo
lo amó.
Humilde boxeador,
se juega por sus bienes,su dulce
amada,
y la derrota lo alcanzó en todo su
esplendor.
¡el boxeador!...
¡boxeador!


Final: son 10 golpes en MI, la cuenta regresiva
Suggest correction
Give kudos to tab author, rate the tab!
1 2 3 4 5
comments
print report bad tab
guest
You may want to rate the tab now too:
select rating
Wanna post a correction for this tab? Suggest correction