Oops, an error
Loading. Please wait.

El Boxeador Tab

by MAD
17 views 1 this week
no commentswrite comment
1 2 3 4 5
3 more votes to show rating
add to favorites
launch autoscroll
font size
0
reset
how to read this tab
guitar tuner
Autoscroll
slow
fast
+/-
esc
set tempo
stop
Intro:
1|------------------|----------------|
2|------------------|----------------|
3|------------------|----------------|
4|---------------2^-|--2-0-----------|
5|-------1----------|------1-0-----2-|
6|-0-2-3---3-2-0----|----------3-2-0-|

Riff 1:
1|-------------------------------------|
2|-------------------------------------|
3|-------------------------------------|
4|---------------------2-0-------------|
5|-----2-------1-----------1-0-------2-|
6|-15-0-0-2-3---3-2-0---------2-3-2-0-|

Fill 1:
Fill 1:
4|-----------|
5|-1p0-----2-|
6|-----3-2-0-|

Fill 2:
4|-------------|
5|-----1-----2-|
6|-000---3-2-0-|


Esta es la historia de un hombre  Fill 1
a quien su vida jamás,            Fill 2
le dio una gran alegría           Fill 1
y solo golpes nomás.              Fill 1

[ch]A5[/ch]
Guarda dulces recuerdos,
de sus amigos, sus amores
su tierra natal

[ch]E5 - MI5[/ch] (agu) X2
bello paisaje austral.

[ch]B[/ch]                             [ch]D5[/ch]
no le pidas que sea un super-hombre es tan solo un boxeador. ¡Un boxeador!.


Riff 1


el boxeador,                  Fill 1
sube al ring a pelear,        Fill 2
pero la lucha continua        Fill 1
es su vida real.              Fill 1

[ch]A5[/ch]
lo avasallan con flashes, con reportajes,
cuando el jurado dijo:-¡ ganador!.

[ch]E5 - MI5[/ch] (agu) X2
el pobre boxeador.

[ch]B[/ch]                             [ch]D5[/ch]
pero cuando pierde es uno mas del montón, ¡ya no es un campeón!


Riff 1

¡boxeador!
¡vamos!

Solo


el boxeador,                  Fill 1
hoy debe recuperar,           Fill 2
la corona perdida,            Fill 1
¡cuanta gloria de cristal!    Fill 1

[ch]A5[/ch]
lo hunde sin pena, sin compasión
toda esa prensa, que en un tiempo lo amó.

[ch]E5 - MI5[/ch] (agu) X2
Humilde boxeador,

[ch]B[/ch]                             [ch]D5[/ch]
se juega por sus bienes,su dulce amada,
[ch]B[/ch]                                   [ch]D5[/ch]
y la derrota lo alcanzó en todo su esplendor.

Riff 1

¡el boxeador!...
¡boxeador!

[ch]E5[/ch]
1-2-3-4-5-6-7-8-9.... knock out
Suggest correction
Give kudos to tab author, rate the tab!
1 2 3 4 5
comments
print report bad tab
guest
Wanna post a correction for this tab? Suggest correction