Oops, an error
Loading. Please wait.

Mutaciones Tab

10 views 1 this week
no commentswrite comment
1 2 3 4 5
3 more votes to show rating
add to favorites
launch autoscroll
font size
0
reset
how to read this tab
guitar tuner
Autoscroll
slow
fast
+/-
esc
set tempo
stop
Intro
1|-------------------------|
2|-------------------------|
3|-2-2-----------2-2-------|
4|-0-0-0-3p0-----0-0-3p0-5-|
5|-----------3p0-----------|
6|-------------------------|

Riff 1
1|--------------------------|
2|--------------------------|
3|-2-2-------2-2--2-2-------|
4|-0-0-------3-0--0-0-3p0-5-|
5|-----0-3p0----------------|
6|--------------------------|

Riff 2
1|---------------------------|
2|---------------------------|
3|-2-2-----------2-2-2/42-5-|
4|-0-0-0-3p0-----0-0-2/42---|
5|-----------3p0-------------|
6|---------------------------|


Riff 1
Tienen los ojos que se salen de la cara
tocan el bajo, 8 dias a la semana
muchos de ellos se pudieron escapar
del tren fantasma que estaba en el Ital Park

[ch]G[/ch]                              Intro
yo te aseguro que los pude ver... si!


Riff 1
a veces hablan en idiomas muy extraños
y se hacen señas con su codigo privado


[ch]G[/ch]                              Intro
yo te aseguro que los pude ver

[ch]Am[/ch]                                        [ch]G[/ch]
por que en la esquina ellos siempre estan, como si fuera un bar

Sobre Intro
MUTACIONES DE TODAS LAS NACIONES
MUTACIONES DE TODOS LOS COLORES
MUTACIONES!!!!!

Riff 2

Solo

[ch]G[/ch]                              Intro
yo te aseguro que los pude ver

[ch]Am[/ch]                                        [ch]G[/ch]
por que en la esquina ellos siempre estan, como si fuera un bar

Sobre Intro
MUTACIONES DE TODAS LAS NACIONES
MUTACIONES DE TODOS LOS COLORES
MUTACIONES!!!!!
una mutacao!!! una mutacao!!
Suggest correction
Give kudos to tab author, rate the tab!
1 2 3 4 5
comments
print report bad tab
guest
You may want to rate the tab now too:
select rating
Wanna post a correction for this tab? Suggest correction