Oops, an error
Loading. Please wait.

Noche De Rock Tab

by MAD
28 views 1 this week
no commentswrite comment
1 2 3 4 5
3 more votes to show rating
add to favorites
×
Save as Personal and add changes to this tab that will be seen only by you. Learn more ›
×
You can save this tab as Personal to edit and correct it or add notes. All changes will be seen only by you. Learn more »
save as personal
new!
launch autoscroll
font size
0
reset
how to read this tab
guitar tuner
Autoscroll
slow
fast
+/-
esc
set tempo
stop
Intro:

Es una base de Rock and Roll... escuchar el ritmo

1|--------------------------|
2|--------------------------|
3|--------------------------|
4|--------------------------|
5|---------5-----7-9-7-9-10-|
6|-5h7h8p5---8-5-5-5-5-5-5--|


EL tema lleva esta secuancia ritmica en las notas en las estrofas:
Por ejemplo en A5
1|--------------------------|
2|--------------------------|
3|--------------------------|
4|--------------------------|
5|-7-9-7-9-7-7-9-7-10-7-9-7-|
6|-5-5-5-5-5-5-5-5-5--5-5-5-|

Hace lo mismo en D5 y E5


A5
Esta noche voy a salir
Espero quieras venir
No quiero discusiones
Hoy puedo disfrutar.

D5
Tomar unas copas
Y ponerme a tocar

E5                    G5agu
tal vez me emborrache

D5
  Y fume de mas

Todo el tiempo que tengo de amar
Lo quiero aprovechar
La música me llama
No me puedo negar
No me hables de sexo
Hoy solo quiero rockear
A [ch]A[/ch] cama iremos
En una noche de!...!

Estribillo:

1|----------------------------------------------|
2|----------------------------------------------|
3|----------------------------------------12----|
4|------------------7---------------------12----|
5|-5/7-5/7-5/7------5-7--5/7-5/7-5/7------10-12-|
6|-3/5-3/5-3/5--555---5--3/5-3/5-3/5--555----10-|
Pm:             ...                   ...


De rock!!!
Es una noche
De rock!!!
             G5agu
Es una noche
D5
   Noche de rock!!.........


Solo: Sobre las mismas notas y ritmo de las estrofas

Repite todo igual

FINAL:

G5agu - D5 - C5 - A5

G5agu
1|----|
2|----|
3|-12-|
4|-12-|
5|-10-|
6|----|
Suggest correction
Give kudos to tab author, rate the tab!
1 2 3 4 5
comments
print report bad tab
guest
Wanna post a correction for this tab? Suggest correction