Oops, an error
Loading. Please wait.

Time And Time Again Tab

version 1
version 1

Whole song

669 views 1 this week
no commentswrite comment
1 2 3 4 5
3 more votes to show rating
add to favorites
launch autoscroll
font size
0
reset
how to read this tab
guitar tuner
Autoscroll
slow
fast
+/-
esc
set tempo
stop
Help us to improve Ultimate-Guitar.com Take our survey!
×
Author
Mad At Gravity

Time and Time again

Intro:

Guitar A  (Clean + flanger)

0sec

E--------------------------------------------------|
B--------1-1-1-1-----------1-1-1-1-----------------|
G------0--0-0-0----------0--0-0-0------------------|
D----------------------1---------------------------|
A---3----------------------------------------------|
D--------------------------------------------------|

Guitar B  (slightly distorted)

12sec

E---------------------------------------------------------------------------|
B---------------------------------------------------------------------------|
G-------5-5-5--------------5-5-5-------10--10--10-10/5-5-5-5/-3-3-3-3-------|
D-----5--5-5-5-----------5--5-5-5------X---X---X--X-/X-X-X-X/-X-X-X-X-------|
A---3------------------6---------------8---8---8--8-/7-7-7-7/-5-5-5-5-------|
D---------------------------------------------------------------------------|

Guitar A+B  (Full Distortion)

33 sec
				  (Guitar B Hold)
E------------------------------------------------|
B------------------------------------------------|
G---5-5-5-5-5--5-5-5-5-5-5-5-5-5--(5)------------|
D---5-5-5-5-5--5-5-5-5-5-5-5-5-5--(5)------------|
A---3-3-3-3-1--3-3-1-3-3-1-3-3-1--(3)------------|
D------------------------------------------------|

43 sec  (Verse)

Guitar A  (Clean + flanger)

E--------------------------------------------------|
B--------1-1-1-1-----------1-1-1-1-----------------|
G------0--0-0-0----------0--0-0-0------------------|
D----------------------1---------------------------|
A---3----------------------------------------------|
D--------------------------------------------------|

Guitar B (slightly Distorted)

E---------------------------------------------------------------------------|
B---------------------------------------------------------------------------|
G-------5-5-5--------------5-5-5-------10--10--10-10/5-5-5-5/-3-3-3-3-------|
D-----5--5-5-5-----------5--5-5-5------X---X---X--X-/X-X-X-X/-X-X-X-X-------|
A---3------------------6---------------8---8---8--8-/7-7-7-7/-5-5-5-5-------|
D---------------------------------------------------------------------------|

1:03 (chorus)

Guitar A+B  (Full Distortion)

E-------------------------------------------------------------------|
B-------------------------------------------------------------------|
G---5-5-5-5-5--5-5-5-5-5-5-5-5-5------------------------------------|
D---5-5-5-5-5--5-5-5-5-5-5-5-5-5--3-3-3-3-1-1-1-1-6-6-6-6-8-8-8-8---|
A---3-3-3-3-1--3-3-1-3-3-1-3-3-1--3-3-3-3-1-1-1-1-6-6-6-6-8-8-8-8---|
D---------------------------------3-3-3-3-1-1-1-1-6-6-6-6-8-8-8-8---|

1:23 (bridge)

Guitar A (Distortion + flanger)

E-----------------------------------------------------------------------------------|
B-----------------------------------------------------------------------------------|
G--------17-15-15-15---17-15-15-15---17-15-15-15---17-15-15-15-----17---------------|
D-----------------------------------------------------------------------------------|
A--------15-13-13-13---15-13-13-13---15-13-13-13---15-13-13-13-----15---------------|
D-----------------------------------------------------------------------------------|


1:33 (verse)
1:53 (Chorus)
2:13 (Bass solo)


2:20
Guitar A (Distortion + flanger)
							+ bend, - release
E-----------------------------------------------------------------------------------|
B-----------------------------------------------------------------------------------|
G--------17-15-17-15-17-15-17-15-17-15-17-15-17-15-17-15----------------------------|
D-----------------------------------------------------------------------------------|
A--------15-13-15-13-15-13-15-13-15-13-15-13-15-13-15-13-17(+19)(-17)-15------------|
D-----------------------------------------------------------------------------------|

(bridge)
(chorus)

Outro

Guitar A+B  (Full Distortion)

E----------------------|
B----------------------|
G-------------3--------|
D---3-3-3-3-1-3-3-1-3--|
A---3-3-3-3-1-1-3-1-3--|
D---3-3-3-3-1---3-1-3--|

End

jaalfransua@hotmail.com
Suggest correction
Give kudos to tab author, rate the tab!
1 2 3 4 5
comments
print report bad tab
guest
You may want to rate the tab now too:
select rating
Wanna post a correction for this tab? Suggest correction