Oops, an error
Loading. Please wait.

I Dont Know Anything intro tab

version 1
version 1

Intro

Whole song

Interactive

3,193 views 3 this week
2 commentsread comments
1 2 3 4 5
x 5
add to favorites
×
Save as Personal and add changes to this tab that will be seen only by you. Learn more ›
×
You can save this tab as Personal to edit and correct it or add notes. All changes will be seen only by you. Learn more »
launch autoscroll
font size
0
reset
how to read this tab
guitar tuner
edit
Autoscroll
slow
fast
+/-
esc
set tempo
stop
Author
Difficulty
heres just a little thing i screw around with when im just starting to play sometimes =]


e|--------------------------------------------------------|
B|--------------------------------------------------------|
G|--------------------------------------------------------|
D|--------------------------------------------------------|
A|--------------------------------------------------------|
E|--/16---0-16-0-16-0-3b----------------------------------|

e|--------------------------------------------------------|
B|--------------------------------------------------------|
G|--------------------------------------------------------|
D|--------------------------------------------------------|
A|--------------------------------------------------------|
E|--/16---0-16-0-16-0-3b----------------------------------|

e|--------------------------------------------------------|
B|--------------------------------------------------------|
G|--------------------------------------------------------|
D|--------------------------------------------------------|
A|--------------------------------------------------------|
E|--/16---0-16-0-16-0-3b----------------------------------|

e|--------------------------------------------------------|
B|--------------------------------------------------------|
G|--------------------------------------------------------|
D|--------------------------------------------------------|
A|-----------------------17-14----------------------------|
E|--/16---0-16-0-16-0-3b----------------------------------|

there ya be, dont critisize me please,

            
            
Suggest correction
Creating personal tab
Creating personal tab
You can edit any tab online and save it as your Personal.

You can edit, replace or remove any tab part or add personal notes – all changes will be seen only by you.

Personal tabs can be accessed anytime from any device, even offline.
Learn more »
comments
print report bad tab
2 comments total.
-1 reply
elberens 30 Feb 24, 2008 12:43 PM

nice attempt dude but why don't you try that , it sounds more accurate , but i'm not sure cause i tabbed it myself

D|--------------------------------------------------------|
A|---------------------------------17----17---------------|
E|---------/16-0-16-0-2b-0-16-0-16----16------------------|

+1 reply
ClaptonInChains 10 Feb 28, 2008 07:42 PM

This is wrong, you play the natural harmonic on the 4th fret of the E string then you bend the 2nd fret to the 3rd fret, then you play the harmonic on the fifth fret of the A and D strings

guest
You may want to rate the tab now too:
select rating
Wanna post a correction for this tab? Suggest correction