Oops, an error
Loading. Please wait.

Lovesick Tab

by Madcap
529 views 1 this week
no commentswrite comment
1 2 3 4 5
2 more votes to show rating
add to favorites
launch autoscroll
font size
0
reset
how to read this tab
guitar tuner
×
Best way to learn
"Lovesick"
Autoscroll
slow
fast
+/-
esc
set tempo
stop
Author
Intro:

E|---------------------|
B|---------------------|
G|--88--888--888--888--|
D|---------------------|
A|--66--666--666--666--|
E|---------------------|

Intro 2:

E|----------------------------------|
B|--8~---------------8~-------------|
G|--------8-7-5-0----------8-7-5-0--|
D|----------------------------------|
A|----------------------------------|
E|----------------------------------|

E|-------------------------|
B|--8-11-8-------8-11-8----|
G|---------8-7----------7--|
D|-------------------------|
A|-------------------------|
E|-------------------------|

Verse / Intro: I'm not sure if there is a guitar in the verse or if its power chords
are not, but this sounds right. -- Play all chords 12x!

E|--6-------8---|
B|--8-------8---|
G|-(8)------8---|
D|-(8)----(10)--|
A|-(6)----(10)--|
E|---------(8)--|
    Eb      Cm

(It's been such...) Play all chords 8x!
E|--4------6---|
B|--4------6---|
G|--5------7---|
D|-(6)----(8)--|
A|-(6)----(8)--|
E|-(4)----(6)--|
    Ab     Eb

(It's been such...)
E|-------------------------|
B|--8-11-8-------8-11-8----|
G|---------8-7----------7--|
D|-------------------------|
A|-------------------------|
E|-------------------------|

Chorus: *=Play 12x "=Play 24x
    *    *    "
E|--6----4----6--|
B|--8----4----6--|
G|--8----5----7--|
D|--8----6----8--|
A|--6----6----8--|
E|-------4----6--|
    Eb   Ab   Bb

(Too late... / Far away...)
E|------------------------|
B|------------------------|
G|------------------------|
D|--8----666-555-333-111--|
A|------------------------|
E|------------------------|

Post-chorus:

E|-----------------------------------|
B|-----------------------------------|
G|-----------------------------------|
D|--5~----3-5~----5-333-111-333-555--|
A|-----------------------------------|
E|-----------------------------------|

Bridge: *=Play 12x "=Play 24x

(Now day by day...)
      *      *      *      *
E|----8------6------6------4---|
B|----8------6------8------4---|
G|----8------7-----(8)-----5---|
D|--(10)----(8)----(8)----(6)--|
A|--(10)----(8)----(6)----(6)--|
E|--(-8)----(6)-----------(4)--|
      Cm     Bb     Eb     Ab

(It's not what it seems...)
    "
E|---6------6---|
B|---6------8---|
G|---7-----(8)--|
D|--(8)----(8)--|
A|--(8)----(6)--|
E|--(6)---------|
    Bb      Eb
Suggest correction
Give kudos to tab author, rate the tab!
1 2 3 4 5
comments
print report bad tab
guest
You may want to rate the tab now too:
select rating
Wanna post a correction for this tab? Suggest correction