Oops, an error
Loading. Please wait.

Hangman Tab

578 views 3 this week
no commentswrite comment
1 2 3 4 5
please rate
add to favorites
launch autoscroll
font size
0
reset
how to read this tab
guitar tuner
Autoscroll
slow
fast
+/-
esc
set tempo
stop
Help us to improve Ultimate-Guitar.com Take our survey!
×
Author
I'm not sure what tuning this is originaly played in, but standard tuning works 
with the intro. Madder
Mortem is a very unknown band from Norway, and why they are not famous, I do not 
know. Their music is
original and great, you should check them out on YouTube or something like it,
and buy their CDs if you
can find them. Anyways, ladies and gents! One of my favourite Madder songs: 
Hangman, taken from the album
Desiderata (2006).
e|------------------------------------------------------------------------------------------------|
B|------------------------------------------------------------------------------------------------|
G|-4~-----2-2(h)4~---------------------------------------4~-----2-2/4~----------------------------|
D|------------------4--5--4---2--4-----------------------------------------4--5--4(h)54-2---4---5^|
A|----------------------------------5----4---5-4--------------------------------------------------|
E|------------------------------------------------------------------------------------------------|

e|------------------------------------------------------------------------------------------------|
B|-----------------------------------------------------------------------------------7---5--------|
G|-----------4~-----4--2------2--0----2--0--1---3--4~---4/7--6--7--9--7(h)97--6--7-----------7--9-|
D|-4---2------------------------------------------------------------------------------------------|
A|------------------------------------------------------------------------------------------------|
E|------------------------------------------------------------------------------------------------|

e|---------------------------------------------------------------------------------| 
B|---------------------------------------------------------------------------------| 
G|-11----9---7--9-----7---7~-----------7---7~--------------12----------------------| 
D|------------------9---9~-------9---9---9~-------------11----11-------------------| 
A|-------------------------------9----------------9---9---------------5----7-------| 
E|------------------------------------------------9-------------------5----7-------| 

e|---------------------------------------------------------------------------------| 
B|---------------------------------------------------------------------------------| 
G|-------7---7~-----------7---7~-------------12------------------------------------| 
D|-9---9---9~-------9---9---9~------------11----11--------------5---7--------------| 
A|-9----------------9---------------9---9-----------------------5---7--------------| 
E|----------------------------------9----------------------------------------------| 

For any corrections or feedback, email me at petter666@live.com, set subject to "Tabcorrection".
Enjoy!
Suggest correction
Give kudos to tab author, rate the tab!
1 2 3 4 5
comments
print report bad tab
guest
You may want to rate the tab now too:
select rating
Please do not post tabs as comments. Select "correction" instead!