Oops, an error
Loading. Please wait.

Fly intro tab

version 1
version 1

Intro

Whole song

1,112 views 1 this week
2 commentsread comments
1 2 3 4 5
1 last vote to show rating
add to favorites
×
Save as Personal and add changes to this tab that will be seen only by you. Learn more ›
×
You can save this tab as Personal to edit and correct it or add notes. All changes will be seen only by you. Learn more »
launch autoscroll
font size
0
reset
how to read this tab
guitar tuner
edit
Autoscroll
slow
fast
+/-
esc
set tempo
stop
Author
-------------------------------------------------------------------------------
                             SONG NAME - Fly (Intro)
Tabbed by: mkonopa
E-mail: rr82rip@gmail.com

Tuning: Standard

Guitar 1

e|----1---1---1---1---1---1---1---1----5---5---5---5---5---5---5---5---------|
B|---------------------------------------------------------------------------|
G|---------------------------------------------------------------------------|
D|--3---3---3---3---3---3---3---3----2---2---2---2---2---2---2---2-----------|  
A|---------------------------------------------------------------------------|
E|---------------------------------------------------------------------------|

Guitar 2 (Simulates Mandolin)

e|------------------1-1-1-1----------------------------0-0-0-0---------------|
B|--1-1-1-1-1-1-1-1---------1-1-1-1----1-1-1-1-1-1-1-1---------1-1-1-1-------|
G|---------------------------------------------------------------------------|
D|---------------------------------------------------------------------------|
A|---------------------------------------------------------------------------|
E|---------------------------------------------------------------------------|

Guitar 1

e|--------1---1---1---1---1---1---1---1----1---1---1---1---1---1---1---------|
B|---------------------------------------------------------------------------|
G|---------------------------------------------------------------------------|
D|------0---0---0---0---0---0---0---0----------------------------------------|
A|---------------------------------------1---1---1---1---1---1---1-----------|
E|---------------------------------------------------------------------------|

Guitar 2 (Simulates Mandolin)

e|------------------1-1-1-1---------------------------1-1-1-1----------------|
B|--3-3-3-3-3-3-3-3---------3-3-3-3------------------------------------------|
G|-------------------------------------3-3-3-3-3-3-3-3--------3-3-3-3--------|
D|---------------------------------------------------------------------------|
A|---------------------------------------------------------------------------|
E|---------------------------------------------------------------------------|

************************************

| /   slide up
| \   slide down
| h   hammer-on
| p   pull-off
| ~   vibrato
| +   harmonic
| x   Mute note
| b   Bend
| pb  Pre-bend
| br  Bend release
| pbr Pre-bend release
| brb Bend release bend

************************************

            
            
Suggest correction
Creating personal tab
Creating personal tab
You can edit any tab online and save it as your Personal.

You can edit, replace or remove any tab part or add personal notes – all changes will be seen only by you.

Personal tabs can be accessed anytime from any device, even offline.
Learn more »
Give kudos to tab author, rate the tab!
1 2 3 4 5
comments
print report bad tab
2 comments total.
0 reply
charles981 10 May 06, 2016 03:22 AM

excellent tab!! well done... we were looking for something like this mandolin part.. any suggestions for how to make it sounds more like a mandolin?? any effects or sumfin??

0 reply
247horsegirl 10 Jan 10, 2017 04:17 PM

It's really good! I love it

guest
You may want to rate the tab now too:
select rating
Wanna post a correction for this tab? Suggest correction