Oops, an error
Loading. Please wait.

Yes We Can tab

version 2
version 2

Whole song

1,813 views 3 this week
10 commentsread comments
1 2 3 4 5
x 7
add to favorites
×
Save as Personal and add changes to this tab that will be seen only by you. Learn more ›
×
You can save this tab as Personal to edit and correct it or add notes. All changes will be seen only by you. Learn more »
launch autoscroll
font size
0
reset
how to read this tab
guitar tuner
backing track
0:00
0:00
edit
Autoscroll
slow
fast
+/-
esc
set tempo
stop
Author
Difficulty
Uhh.. I saw this song on GuitarHero2 and It sounded pretty weird. And... it seemed 
easy so i thought I'd tab it out. It is easy and sounds kool. So.. here it is, pretty 
done by ear.

Intro

|---------------------------------|
|-----------------4-4-------------|
|-0-0-0---2-2-2-------------------|
|---------------------------------|
|---------------------------------|
|---------------------------------|

|---------------------------------|
|-----------------4-4-------------|
|-0-0-0---2-2-2-------------------|
|---------------------------------|
|---------------------------------|
|---------------------------------|

|---------------------------------|
|-----------------4-4-------------|
|-0-0-0---2-2-2-------------------|
|---------------------------------|
|---------------------------------|
|---------------------------------| I  think that goes through the verse, not for sure.

The other one, which comes in later in the song.

|---------------------------------|
|-----------------7-7-------------|
|-0-0-0---5-5-5-------------------|
|---------------------------------|
|---------------------------------|
|---------------------------------| It can be either this or

|----------------7-7--------------|
|--0-0-0---5-5-5------------------|
|---------------------------------|
|---------------------------------|
|---------------------------------|
|---------------------------------| < this. Either one sounds good.

Well.. comment and/or rate.
Laterr
Suggest correction
Creating personal tab
Creating personal tab
You can edit any tab online and save it as your Personal.

You can edit, replace or remove any tab part or add personal notes – all changes will be seen only by you.

Personal tabs can be accessed anytime from any device, even offline.
Learn more »
comments
print report bad tab
10 comments total. Showing first comments.
+1 reply
Alpha_Wolf 268 May 08, 2007 10:27 AM

DUDE! THIS SONG IS SO STUPID! lmao every time I play it on guitar hero I always bust up laughing.... it's horrible. How it got into guitar hero is beyond me.

0 reply
unholy_love 261 May 29, 2007 12:46 PM

I know.. Its just.. awkard. But it is funny.

And i dont know how it got on there..

+1 reply
hollbish 31 Jun 05, 2007 12:45 PM

Wrong notes

guest
You may want to rate the tab now too:
select rating
Wanna post a correction for this tab? Suggest correction