Oops, an error
Loading. Please wait.

Pay No Mind intro tab

by Madeon
923 views 3 this week
no commentswrite comment
1 2 3 4 5
2 more votes to show rating
add to favorites
×
Save as Personal and add changes to this tab that will be seen only by you. Learn more ›
×
You can save this tab as Personal to edit and correct it or add notes. All changes will be seen only by you. Learn more »
launch autoscroll
font size
0
reset
how to read this tab
guitar tuner
edit
Autoscroll
slow
fast
+/-
esc
set tempo
stop
Author
Difficulty
I've been searching all over for the intro to this song but found nothing, so i decided 
to try and
tab it myself! This is the melody that plays throughout the majority of the song.

Please feel free to correct any mistakes you notice, this is my first tab.

Hopefully, I'll be able to figure out the rest of the song soon.


E-----------------------------------------------------------------------------|
A-----------------------------------------------------------------------------|
D-----------------------------------------------------------------------------|
G--------------------------------------------------------16-16-16-16-16-------|
B---17--15-15-14-15-15-15-15--------------------------------------------------|
E-----------------------------------------17-17-17----------------------------|

E-----------------------------------------------------------------------------|
A-----------------------------------------------------------------------------|
D-----------------------------------------------------------------------------|
G--------------------------------------------------------16-16-16-16-16-------|
B---17--15-15-14-15-15-15-15-------15---15------------------------------------|
E------------------------------------17---17----------------------------------|

            
            
Suggest correction
Creating personal tab
Creating personal tab
You can edit any tab online and save it as your Personal.

You can edit, replace or remove any tab part or add personal notes – all changes will be seen only by you.

Personal tabs can be accessed anytime from any device, even offline.
Learn more »
Give kudos to tab author, rate the tab!
1 2 3 4 5
comments
print report bad tab
guest
You may want to rate the tab now too:
select rating
Wanna post a correction for this tab? Suggest correction