Oops, an error
Loading. Please wait.

Elastic Heart Acoustic tab

169 views 3 this week
no commentswrite comment
1 2 3 4 5
3 more votes to show rating
add to favorites
×
Save as Personal and add changes to this tab that will be seen only by you. Learn more ›
×
You can save this tab as Personal to edit and correct it or add notes. All changes will be seen only by you. Learn more »
launch autoscroll
font size
0
reset
how to read this tab
guitar tuner
edit
Autoscroll
slow
fast
+/-
esc
set tempo
stop
Author
About this tab version
My tab to Sia's Elastic Heart is based on the cover by Madilyn Bailey and Kurt Hugo Schneider. It is an improvisation of myself and it's not exactly correct, but it sounds beautiful on guitar. Link: https://www.youtube.com/watch?v=hV_03KJMM9A. Was this info helpful? Yes No
*************************************************************************************************************
                               Madilyn Bailey & Kurt Hugo Schneider - Elastic Heart
                                                     [2015]

*************************************************************************************************************

Tuning: Standard, EADGBe
Capo: 2nd fret

[Intro]
   C                   G                   D                    Em            D
e|---------0---------|---------0---------|---------2----------|-------0-----|-------2-----|
B|---------1---------|---------1---------|---------3----------|-------0-----|-------3-----|
G|-------0---0---0---|-----------0---0---|-------2----2---2---|---------0---|-----2---2---|
D|-----2-------2-----|-------0-----0-----|-----0--------0-----|-----2-------|---0---------|
A|---3---------------|-----2-------------|---0----------------|---2---------|-------------|
E|-------------------|---3---------------|--------------------|-------------|-------------|   (2x)

[Verse 1 + Bridge]
   C                   G                   D                    Em            D
e|---------0---------|---------0---------|---------2----------|-------0-----|-------2-----|
B|---------1---------|---------1---------|---------3----------|-------0-----|-------3-----|
G|-------0---0---0---|-----------0---0---|-------2----2---2---|---------0---|-----2---2---|
D|-----2-------2-----|-------0-----0-----|-----0----------0---|-----2-------|---0---------|
A|---3---------------|-----2-------------|---0----------------|---2---------|-------------|
E|-------------------|---3---------------|--------------------|-------------|-------------|   (6x)

And another one bites the dust, oh why can I not conquer love?           
And I might have thought that we were one, wanted to fight this war without weapons
And I wanted it, I wanted it so bad, but there were so many red flags
Now another one bites the dust, oh lets be clear, I trust no one

You did not break me
I'm still fighting for peace

[Chorus]
   C                     G                     D                     Em            D
e|---0---0---0---0-----|---3---3---3---3-----|---2---2---2---2-----|---0---0-----|---2---2-----|
B|---1---1---1---1-----|---0---0---0---0-----|---3---3---3---3-----|---0---0-----|---3---3-----|
G|---------------------|---------------------|-----2---2---2---2---|-------------|-----2---2---|
D|-----2---2---2---2---|-----2---2---2---2---|---------------------|-----2---2---|-------------|
A|---------------------|---------------------|---------------------|---2---------|-------------|
E|---------------------|---------------------|---------------------|-------------|-------------|   (2x)

But I've got thick skin and an elastic heart, but your blade it might be too sharp
I'm like a rubber band until you pull too hard, oh I may snap and I move fast

   C                   G                   D                    Em            D
e|---------0---------|---------0---------|---------2----------|-------0-----|-------2-----|
B|---------1---------|---------1---------|---------3----------|-------0-----|-------3-----|
G|-------0---0---0---|-----------0---0---|-------2----2---2---|---------0---|-----2---2---|
D|-----2-------2-----|-------0-----0-----|-----0--------0-----|-----2-------|---0---------|
A|---3---------------|-----2-------------|---0----------------|---2---------|-------------|
E|-------------------|---3---------------|--------------------|-------------|-------------|   (4x)

You won't see me fall apart
'Cause I've got an elastic heart
Oh, I've got an elastic heart
I've got an elastic heart

[Verse 2 + Bridge]
   C                   G                   D                    Em            D
e|---------0---------|---------0---------|---------2----------|-------0-----|-------2-----|
B|---------1---------|---------1---------|---------3----------|-------0-----|-------3-----|
G|-------0---0---0---|-----------0---0---|-------2----2---2---|---------0---|-----2---2---|
D|-----2-------2-----|-------0-----0-----|-----0--------0-----|-----2-------|---0---------|
A|---3---------------|-----2-------------|---0----------------|---2---------|-------------|
E|-------------------|---3---------------|--------------------|-------------|-------------|   (6x)

And I will stay up through the night, oh let's be clear, won't close my eyes
And I know that I can survive, I'll walk through fire to save my life
And I want it, I want my life so bad, I'm doing everything I can
Then another one bites the dust, it's hard to lose a chosen one

You did not break me
I'm still fighting for peace

[Chorus * Outro]
   C                     G                     D                     Em            D
e|---0---0---0---0-----|---3---3---3---3-----|---2---2---2---2-----|---0---0-----|---2---2-----|
B|---1---1---1---1-----|---0---0---0---0-----|---3---3---3---3-----|---0---0-----|---3---3-----|
G|---------------------|---------------------|-----2---2---2---2---|-------------|-----2---2---|
D|-----2---2---2---2---|-----2---2---2---2---|---------------------|-----2---2---|-------------|
A|---------------------|---------------------|---------------------|---2---------|-------------|
E|---------------------|---------------------|---------------------|-------------|-------------|   (2x)

But I've got thick skin and an elastic heart, but your blade it might be too sharp
I'm like a rubber band until you pull too hard, oh I may snap and I move fast

   C                   G                   D                    Em            D
e|---------0---------|---------0---------|---------2----------|-------0-----|-------2-----|
B|---------1---------|---------1---------|---------3----------|-------0-----|-------3-----|
G|-------0---0---0---|-----------0---0---|-------2----2---2---|---------0---|-----2---2---|
D|-----2-------2-----|-------0-----0-----|-----0--------0-----|-----2-------|---0---------|
A|---3---------------|-----2-------------|---0----------------|---2---------|-------------|
E|-------------------|---3---------------|--------------------|-------------|-------------|   (5x)

You won't see me fall apart
'Cause I've got an elastic heart
I've got an elastic heart
I've got an elastic heart
I've got an elastic heart
Suggest correction
Creating personal tab
Creating personal tab
You can edit any tab online and save it as your Personal.

You can edit, replace or remove any tab part or add personal notes – all changes will be seen only by you.

Personal tabs can be accessed anytime from any device, even offline.
Learn more »
Give kudos to tab author, rate the tab!
1 2 3 4 5
comments
print report bad tab
guest
You may want to rate the tab now too:
select rating
Wanna post a correction for this tab? Suggest correction