Oops, an error
Loading. Please wait.

One Last Kiss bass

version 1
version 1

Whole song

Interactive

5,597 views 3 this week
4 commentsread comments
1 2 3 4 5
x 4
add to favorites
×
Save as Personal and add changes to this tab that will be seen only by you. Learn more ›
×
You can save this tab as Personal to edit and correct it or add notes. All changes will be seen only by you. Learn more »
launch autoscroll
font size
0
reset
guitar tuner
edit
Autoscroll
slow
fast
+/-
esc
set tempo
stop
Artist: Madina Lake
Bassist: Matthew Leone
Song: One Last Kiss
Album: From Them, Through Us, To You
Tabbed By: Lewis [lewis_mason21@hotmail.com]

Quite an easy song, follows the guitar pretty much if I'm correct.  Drop C tuning!

Key:
~: Let Note Ring
/: Slide Up
\: Slide Down

[Tuning: Drop C - C,G,C,F]

Intro: [Note: Wait until everything comes in]
F|----------------------------------|
C|----------------------------------|
G|---------33333333---------3333/5~-|
C|-33-33-3----------33-33-3---------|

F|-----------------------------------|
C|-----------------------------------|
G|---------33333333---------33333333-|
C|-00-00-0----------00-00-0----------|

F|------------------------------|
C|------------------------------|
G|---------33333333-3333-33-333-|
C|-33-33-3----------------------|


Verse One:
("She looked at me" ... "Sinking from you")
F|-----REST-----|
C|-----REST-----|
G|-----REST-----|
C|-----REST-----|


Pre-Chorus:
("Goodbye, she said" ... "I've found somebody new")
F|--------------------------------|
C|--------------------------------|
G|--------------------------------|
C|-33-33--33-33-5\--00-00--0000-0-|


Chorus: [Note: Those are "10"s and "12"s]
("But I gave you every waking moment" ... "You're giving me up")
F|-------------------------------------------------------------|
C|-------------------------------------------------------------|
G|-------------------------------------------------------------|
C|-88888888-1010101010101010-1212121212121212-1212121212121212-|

F|---------------------------------------------|
C|---------------------------------------------|
G|---------------------------------------------|
C|-88888888-1010101010101010-00000000-00000000-|


verse Two:
("You walked away" ... "Nothing to do with you")
F|-----REST-----|
C|-----REST-----|
G|-----REST-----|
C|-----REST-----|

Pre-Chorus:
("I knew, someday" ... "Leave me one last kiss")
F|------------------------------------------------------------------|
C|------------------------------------------------------------------|
G|------------------------------------------------------------------|
C|-33-33--33-33-5\--00-00--00-00-5\--33-33--33-33-5\--00-00--0000-0-|


Chorus: [Note: Those are "10"s and "12"s]
("But I gave you every waking moment" ... "You're giving me up")
F|-------------------------------------------------------------|
C|-------------------------------------------------------------|
G|-------------------------------------------------------------|
C|-88888888-1010101010101010-1212121212121212-1212121212121212-|

F|---------------------------------------------|
C|---------------------------------------------|
G|---------------------------------------------|
C|-88888888-1010101010101010-00000000-00000000-|


Bridge Part One: [Note: Those are "10"s and "12"s]
("And I can't" ... "I'm all alone this time")
F|-------------------------------------------------------------|
C|-------------------------------------------------------------|
G|-------------------------------------------------------------|
C|-88888888-1010101010101010-1212121212121212-1212121212121212-|

F|-------------------------------------------------------|
C|-------------------------------------------------------|
G|-------------------------------------------------------|
C|-88888888-1010101010101010-12-1212121212-12-1212121212-|


Break: [Note: I don't think the bass plays here, just guitar]
("All alone this time" ... "I'm all alone this time")
F|-----REST-----|
C|-----REST-----|
G|-----REST-----|
C|-----REST-----|


Bridge Part Two:
("I remember when you were falling" ... "That you carved in me")
F|---------------------------------------------|
C|---------------------------------------------|
G|---------------------------------------------|
C|-33333333-77777777-00000000-1010101010101010-|

F|--------------------------------------------------------|
C|--------------------------------------------------------|
G|--------------------------------------------------------|
C|-33333333-77777777-00000000-10-1010101010-10-1010101010-|


Chorus: [Note: Those are "10"s and "12"s]
("But I gave you every waking moment" ... "You're giving me up")
F|-------------------------------------------------------------|
C|-------------------------------------------------------------|
G|-------------------------------------------------------------|
C|-88888888-1010101010101010-1212121212121212-1212121212121212-|

F|---------------------------------------------|
C|---------------------------------------------|
G|---------------------------------------------|
C|-88888888-1010101010101010-00000000-00000000-|


Bridge: [Note: Those are "10"s and "12"s]
("And I can't" ... "I'm all alone this time")
F|-------------------------------------------------------------|
C|-------------------------------------------------------------|
G|-------------------------------------------------------------|
C|-88888888-1010101010101010-1212121212121212-1212121212121212-|

F|-------------------------------------------------------|
C|-------------------------------------------------------|
G|-------------------------------------------------------|
C|-88888888-1010101010101010-12-1212121212-12-1212121212-|


Outro: [Note: Come in right at the end]
("Cause I'm all alone this time" ... "I'm all alone this time")
F|---------------|
C|---------------|
G----------------|
C|-10-1010101010-|
Suggest correction
Creating personal tab
Creating personal tab
You can edit any tab online and save it as your Personal.

You can edit, replace or remove any tab part or add personal notes – all changes will be seen only by you.

Personal tabs can be accessed anytime from any device, even offline.
Learn more »
comments
print report bad tab
4 comments total. Showing first comments.
0 reply
Bren.S 10 Jun 13, 2007 04:59 AM

OMG!!!! i love this song an cud never find the tab, thanks so much man, great job! only 1 prob u dont have to de-tune all the strings coz not all are played but thanks sooo much, keep it up=)

0 reply
darth_sinarnous 51 Jun 20, 2007 08:22 AM

there is bass in the verse but it looks pretty good thank you i funking love this band if you can do any other madina lake song great

0 reply
guitarkenny 72 Oct 24, 2007 05:33 PM

yeah, there is bass in the verses, and it goes like this i think

x2
F--------------------------------
C--------------------------------
G-8~-10~-5~----------------------
C--------------------------------

then the break goes

F---------------------------------------------
C---------------------------------------------
G---------------------------------------------
C-3333-33-33-3333-33-33-0000-00-00-0000-00-00-

guest
You may want to rate the tab now too:
select rating
Wanna post a correction for this tab? Suggest correction