Oops, an error
Loading. Please wait.

Baggy Trousers Tab

version 1
version 1

Whole song

Interactive

4,752 views 3 this week
no commentswrite comment
1 2 3 4 5
please rate
add to favorites
launch autoscroll
font size
0
reset
how to read this tab
guitar tuner
Autoscroll
slow
fast
+/-
esc
set tempo
stop
Help us to improve Ultimate-Guitar.com Take our survey!
×
Author
Difficulty
novice
Hi!
Ive heard this awesome song today, and wanted to learn it, but I only found 
chords version of it, and I know all of you dont know how to play them!
So this is my tab of the song!
Enjoy!

- Intro and Verse 1, 2, 3 & Outro - Played twice
e|----------------------|:------------------------|---------:|e
B|----------------------|:------------------------|---------:|B
G|----------------------|:------------------------|---------:|G
D|-9-8-6---3-3-3--9-8-6-|:-3-3-3-3-6-6-6-6-8-8-8-8|--9-8-6--:|D
A|-9-8-6---3-3-3--9-8-6-|:-3-3-3-3-6-6-6-6-8-8-8-8|--9-8-6--:|A
E|-7-6-4---1-1-1--7-6-4-|:-1-1-1-1-4-4-4-4-6-6-6-6|--7-6-4--:|E

- Chorus 1, 2 & 3
                                   |1st| |  2nd  |     |  Variation  |
e|------------------|--------------|---| |-------|     |-------------|
B|------------------|--------------|---| |-------|     |-------------|
G|--3-3-3-3---------|-3-3-3-3-5-555|5-5| |-------|     |-5---6---7---|
D|--3-3-3-3-3-3-3-3-|-3-3-3-3-5-555|5-5| |-9-8-6-|     |-5---6---7---|
A|--1-1-1-1-3-3-3-3-|-1-1-1-1-3-333|3-3| |-9-8-6-|     |-3---4---5---|
E|----------1-1-1-1-|--------------|---| |-7-6-4-|     |-------------| 

- Lyrics

   Naughty boys in nasty schools 
   Headmasters breaking all the rules 
   Having fun and playing fools 
   Smashing up the woodwork tools 
   All the teachers in the pub 
   Passing 'round the ready-rub 
   Trying not to think of when 
   The lunch-time bell will ring again. 

   Oh what fun we had 
   But, did it really turn out bad 
   All I learnt at school 
   Was how to bend not break the rules 
   Oh what fun we had 
   But at the time it seemed so bad 
   Trying different ways 
   To make a difference to the days. 

   Headmaster's had enough to-day 
   All the kids have gone away 
   Gone to fight with next-door's school 
   Every term, that is the rule 
   Sits alone and bends his cane 
   Same old backsides again 
   All the small ones tell tall tales 
   Walking home and squashing snails. 

   Oh what fun we had 
   But, did it really turn out bad 
   All I learnt at school 
   Was how to bend not break the rules 
   Oh what fun we had 
   But at the time it seemed so bad 
   Trying different ways 
   To make a difference to the days. 

   Lots of girls and lots of boys 
   Lots of smells and lots of noise 
   Playing football in the park 
   Kicking Pushbikes after dark 
   Baggy trousers, dirty shirt 
   Pulling hair and eating dirt 
   Teacher comes to break it up 
   Bang on the 'ead with a plastic cup. 

   Oh what fun we had 
   But, did it really turn out bad 
   All I learnt at school 
   Was how to bend not break the rules 
   Oh what fun we had 
   But at the time it seemed so bad 
   Trying different ways 
   To make a difference to the days. 

   Baggy trousers, baggy trousers, baggy trousers 
   Baggy trousers, baggy trousers, baggy trousers 

This is my first complete tab, hope you enjoyed!
Play safe, play good - DenBeste01
Suggest correction
What's this?
You can suggest a correction to this tab. Community and Mods will review your correction and vote to approve or reject it.
comments
We did not receive enough feedback on this tab! Please rate:
print report bad tab
1 2 3 4 5
guest
You may want to rate the tab now too:
select rating
Please do not post tabs as comments. Select "correction" instead!