Oops, an error
Loading. Please wait.

Baggy Trousers Bass Tab

version 3
version 3

Whole song

Interactive

1,384 views 1 this week
no commentswrite comment
1 2 3 4 5
please rate
add to favorites
launch autoscroll
font size
0
reset
guitar tuner
Autoscroll
slow
fast
+/-
esc
set tempo
stop
Help us to improve Ultimate-Guitar.com Take our survey!
×
Difficulty
novice
Artist: Madness
Title : Baggy Trousers
Tabber: maximusfalconi
Tuning: EADG


Intro:
G------------------------------|
D------------------------------|
A-----2----1--------3-3-3-3-3--|
E-------------4---1--------1---|

Main riff
G---------------------------------------------------------|
D---------------------------------------------------------|
A-----2----1-------3-3-3-3-3-----6-6-6-6-6----8-8-8-8-8---|
E-------------4--1--------1-----4-------4---6--------6----|

G-------------------------------------------------------------------|
D-------------------------------------------------------------------|
A-----2----1-------3-3-3-3-3-----6-6-6-6-6----8-8-8-8-8-------------|
E-------------4--1--------1-----4-------4---6--------6---7----6-4-1-|

                                                         Chorus
G-----2-3-2-3--------------------2-3-2-3-------------|
D-----------------2-3-2-3----------------------------|
A-1-1-----------------------1-1------------3-3-3-2-3-|
E-------------1-1------------------------------------|


G-----2-3-2-3--------------------2-3-2-3--------------------|
D-----------------2-3-2-3-----------------------------------|
A-1-1-----------------------1-1-------------3-3-3-3-2--1----|
E-------------1-1-----------------------------------------4-|

Main riff
G---------------------------------------------------------|
D---------------------------------------------------------|
A-----2----1-------3-3-3-3-3-----6-6-6-6-6----8-8-8-8-8---|
E-------------4--1--------1-----4-------4---6--------6----|

G-------------------------------------------------------------------|
D-------------------------------------------------------------------|
A-----2----1-------3-3-3-3-3-----6-6-6-6-6----8-8-8-8-8-------------|
E-------------4--1--------1-----4-------4---6--------6---7----6-4-1-|

alterered Chorus
G-----2-3-2-3--------------------2-3-2-3-------------|
D-----------------2-3-2-3----------------------------|
A-1-1-----------------------1-1------------3-3-3-2-3-|
E-------------1-1------------------------------------|


G-----2-3-2-3--------------------2-3-2-3--------------------|
D-----------------2-3-2-3-----------------------------------|
A-1-1-----------------------1-1-------------3-3-3-3-3-2--4--|
E-------------1-1-------------------------------------------|


bridge
G-----------------------------------------------------------------------|
D-----------------------------------------------------------------------|
A-5-5-5-7-7-7-5-5-5--2-0-2--5-5-5-7-7-7-5-5-5--2-0-2-5-5-5-7-7-7-5-5-5--|
E-----------------------------------------------------------------------|

G-------------------|
D-------------------|
A-----2----1--------|
E-------------4---1-|

Main riff
G---------------------------------------------------------|
D---------------------------------------------------------|
A-----2----1-------3-3-3-3-3-----6-6-6-6-6----8-8-8-8-8---|
E-------------4--1--------1-----4-------4---6--------6----|

G-------------------------------------------------------------------|
D-------------------------------------------------------------------|
A-----2----1-------3-3-3-3-3-----6-6-6-6-6----8-8-8-8-8-------------|
E-------------4--1--------1-----4-------4---6--------6---7----6-4-1-|

Chorus
G-----2-3-2-3--------------------2-3-2-3-------------|
D-----------------2-3-2-3----------------------------|
A-1-1-----------------------1-1------------3-3-3-2-3-|
E-------------1-1------------------------------------|


G-----2-3-2-3--------------------2-3-2-3--------------------|
D-----------------2-3-2-3-----------------------------------|
A-1-1-----------------------1-1-------------3-3-3-3-2--1----|
E-------------1-1-----------------------------------------4-|

bridge 2
G-----------------------------------------------------------------------|
D-----------------------------------------------------------------------|
A-5-5-5-7-7-7-5-5-5--2-0-2--5-5-5-7-7-7-5-5-5--2-0-2-5-5-5-7-7-7-5-5-5--|
E-----------------------------------------------------------------------|

G-------------------|
D-------------------|
A-----2----1--------|
E-------------4---1-|


Outro
G-----------------------------------------------|
D---3--3--3--3--6--6--6--6--8--8--8--8----------|
A-----------------------------------------------|
E-1--1--1--1--4--4--4--4--6--6--6--6--7-6-5--4--|

G-----------------------------------------------|
D---3--3--3--3--6--6--6--6--8--8--8--8----------|
A-----------------------------------------------|
E-1--1--1--1--4--4--4--4--6--6--6--6--7-6-5--4--|

G-----------------------------------------------|
D---3--3--3--3--6--6--6--6--8--8--8--8----------|
A-----------------------------------------------|
E-1--1--1--1--4--4--4--4--6--6--6--6--7-6-5--4--|

G-----------------------------------------------|
D---3--3--3--3--6--6--6--6--8--8--8--8----------|
A-----------------------------------------------|
E-1--1--1--1--4--4--4--4--6--6--6--6--7-6-5--4--|

Order of song:
Intro
Main riff
Chorus
Main riff
altered chorus
bridge
main riff
chorus
bridge2
outro
Suggest correction new What's this?
You can suggest a correction to this tab. Community and Mods will review your correction and vote to approve or reject it.
comments
We did not receive enough feedback on this tab! Please rate:
print report bad tab
1 2 3 4 5
guest
You may want to rate the tab now too:
select rating
Please do not post tabs as comments. Select "correction" instead!