Oops, an error
Loading. Please wait.

One Step Beyond Bass Tab

version 1
version 1

Whole song

Interactive

34,680 views 63 this week
2 commentsread comments
1 2 3 4 5
excellent!
x 16
add to favorites
launch autoscroll
font size
0
reset
guitar tuner
Autoscroll
slow
fast
+/-
esc
set tempo
stop
Help us to improve Ultimate-Guitar.com Take our survey!
×
Song: One Step Beyond
Band: Madness
Album: One Step Beyond
tabbed by:
Gilles Velay (gvelay@free.fr)

Notation :
	q : quarter     ^ : triplet
	e :
8th         

Riff I
======
   q   q   q   q   q   q   q   q     q   q   q
q
G:---------------|---------5-----||-----------------||
D:---------5-----|-3---6-------6-||*---------5-----*||
A:-3---6-------6-|---------------||*-3---6-------6-*||
E:---------------|---------------||-----------------||

Riff II
=======           
      q   q   q   q ^ e     q   q   q   q ^ e   q   q   q   q
G:||---------------------||-------------------|---------------|
D:||*-------------------*||-------------------|-5---3---------|
A:||*-----2---5-------5-*||-----2---5-------2-|---------6---5-|
E:||--3-----------3------||-3-----------3-----|---------------|

Riff III
========
      q   q   q   q  [x4] 
G:||-----------------||
D:||*---------5-----*||
A:||*-3---6-------6-*||
E:||-----------------||

Riff IV
=======
      q   q   q   q   q   q   q   q     
G:||----------------|---------5------||
D:||*---------5-----|-3---6-------6-*||
A:||*-3---6-------6-|---------------*||
E:||----------------|----------------||

----------------------------------------------------------------

Song Structure
==============
Intro
Riff I  (x3)
Riff II
Riff I
Riff III (x2)
Riff II
Riff III
Riff II
Riff I (x2)
Riff II
Riff IV (ad lib)
Suggest correction
What's this?
You can suggest a correction to this tab. Community and Mods will review your correction and vote to approve or reject it.
comments
print report bad tab
2 comments total.
+1 reply
zaadsoldaat 22 wrote on January 12 2005, 12:00 am

coooooooooooooool nice sweet thanks

0 reply
tomboley420 46 wrote on November 12 2015, 09:57 pm

q q q q ^ e q q q q ^ e q q q q
G:||---------------------|
D:||*-------------------*|
A:||*-----2---5-------5-*|
E:||--3-----------7------|
Riff 2 is this played three times (you got the fourth part of riff two right)

guest
You may want to rate the tab now too:
select rating
Please do not post tabs as comments. Select "correction" instead!