Oops, an error
Loading. Please wait.

One Step Beyond tab

version 3
version 3

Whole song

Interactive

by Madness
1,603 views 48 this week
no commentswrite comment
1 2 3 4 5
x 7
add to favorites
×
Save as Personal and add changes to this tab that will be seen only by you. Learn more ›
×
You can save this tab as Personal to edit and correct it or add notes. All changes will be seen only by you. Learn more »
launch autoscroll
font size
0
reset
how to read this tab
guitar tuner
backing track
0:00
0:00
edit
Autoscroll
slow
fast
+/-
esc
set tempo
stop
Author
[Chords to be played behind are:]
   Cm  Fm  G
E: 3   8   3
A: 3   8   3
D  5   10  5
G: 5   10  4
B: 4   9   3
e: 3   8   3

Hey you, don't watch that,
Watch this!
This is the heavy heavy monster sound
The nutsiest sound around
So if you've come in off the street
And you're beginning to feel the heat
Well listen buster
You'd better to start to move your feet
To the rockin'est, rock-steady beat
Of Madness.
One step beyond!

       Cm  Fm      Cm       Cm  Fm      Cm       Cm  Fm 
e|--------------------------------------------------------------------|
B|--------------------------------------------------------------------|
G|--------------------------------------------------------------------|
D|------5~-------------------5~-------------------5~------------------|
A|----6-----8-6-8-6--------6-----8-6-8-6--------6-----8-6-8-6-8p6-----|
E|--8---------------8~---8---------------8~---8-------------------8-8-|

        G   G         G     G      Cm  Fm      Cm   Cm     Cm   Cm
e|-------------------------------------------------------------------------|
B|-------------------------------------------------------------------------|
G|----4-7~--7-8-7-8-7-12-12\7----------------------------------------------|
D|--5-------------------------------5~-------------------------------------|
A|--------------------------------6-----8-6-8-6-----8-6-8-6-----8-6-8-6----|
E|------------------------------8---------------8~----------8~----------8--|
                             ^
              One Step Beyond!^

   Cm          Cm   Cm                     Cm         Cm
e|--------------8----------------------------------------|
B|------------8---8--------------------------------------|
G|-(5)-7-8h10-------12-12-10-12-10-12-10-12p10-----------|
D|--10-----------------------------------------13-10~----|
A|-------------------------------------------------------|
E|-------------------------------------------------------|

    G                G                 G                G
e|------------------------------------------------------------|
B|------------------------------------------------------------|
G|--12-12--12-10-12-10-12-10--12-12-12-15-17--15/17--15-17~---|
D|------------------------------------------------------------|
A|------------------------------------------------------------|
E|------------------------------------------------------------|

   Cm                            Cm
e|--------------------------------------------------------|
B|--------------------------------------------------------|
G|--12-15-15--12-15-12-15---12---15--12--15---12--15--12--|
D|--------------------------------------------------------|
A|--------------------------------------------------------|
E|--------------------------------------------------------|
 
    Cm                              Cm                G
e|--------------------------------------------------------|
B|--------------------------------------------------------|
G|--15p12/10-12p10/8-10p8/7-8p7/5--7-5---5----------------|
D|-------------------------------------5---8-5-8--8-6-5---|
A|--------------------------------------------------------|
E|--------------------------------------------------------|

   G                    G             G
e|-------------------------------------|
B|-------------------------------------|
G|----10-12-----10-12---12-------------|
D|-12--------12------------------------|
A|--------------------------10--10-----|
E|-------------------------------------|
                                     ^
                                     ^One Step Beyond!

       Cm  Fm      Cm      Cm  Fm     Cm          G  G         G     G  
e|------------------------------------------------------------------------|
B|------------------------------------------------------------------------|
G|----------------------------------------------4-7~-7-8-7-8-7-12-12/7----|
D|------5~------------------5-----------------5---------------------------|
A|----6-----8-6-8-6-------6----8-6-8-6------------------------------------|
E|--8---------------8~--8--------------8~---------------------------------|
                                                                        ^
                                                                        ^One Step Beyond

       Cm Fm       Cm      Cm  Fm     Cm           G  G         G     G
e|-------------------------------------------------------------------------|
B|-------------------------------------------------------------------------|
G|-----------------------------------------------4-7~-7-8-7-8-7-12-12/7----|
D|------5~------------------5~-----------------5---------------------------|
A|----6-----8-6-8-6-------6-----8-6-8-6------------------------------------|
E|--8---------------8~--8---------------8~---------------------------------|  
                                                                         ^
                                                                         ^One Step Beyond
                                                                   
       Cm Fm       Cm      Cm  Fm      Cm         
e|-----------------------------------------------------------------------|
B|-----------------------------------------------------------------------|
G|------------------------------------------------------4~~~~~~~~-5------|
D|------5~--------------------------------------------5--------------8---|
A|----6-----8-6-8-6--------8-6-8-6-8p6----------8-6-8--------------------|
E|--8---------------8~-----------------8-8~---8------------------------8-|

One Step Beyond!!!


************************************

| p  Pull-off
| h  Hammer On
| /  Slide up
| \  Slide down
| ~  Vibrato
| ^ Indication of where lyrics are spoken/sung.

************************************
Suggest correction
Creating personal tab
Creating personal tab
You can edit any tab online and save it as your Personal.

You can edit, replace or remove any tab part or add personal notes – all changes will be seen only by you.

Personal tabs can be accessed anytime from any device, even offline.
Learn more »
comments
print report bad tab
guest
You may want to rate the tab now too:
select rating
Wanna post a correction for this tab? Suggest correction