Oops, an error
Loading. Please wait.

Our House Tab

version 2
version 2

Whole song

Interactive

4,101 views 6 this week
no commentswrite comment
1 2 3 4 5
3 more votes to show rating
add to favorites
launch autoscroll
font size
0
reset
how to read this tab
guitar tuner
Autoscroll
slow
fast
+/-
esc
set tempo
stop
Help us to improve Ultimate-Guitar.com Take our survey!
×
Artist: MADNESS
Song:   Our House
Album:  The Rise and Fall


Heres the opening chords...

e|-------------------------------|-------------------------------|-----|
B|-------------------------------|-------------------------------|-----|
G|-5---5----5----5-----3-----2---|-0--0----0----0----------------|-----|
D|-------------------------------|--------------------3-----2----|-----|
A|-3---3----3----3---------------|-------------------------------|-----|
E|-------------------------------|-3--3----3----3----------------|-----|

e-------------------------------|----------------------------------|------|
B-------------------------------|-----------------------------0----|-1----|
G-------------------------------|----------0--0----1--1----3-------|------|
D-0---0----0----0----0-----2----|-3---3----------------------------|------|
A-------------------------------|--------------------------1--2----|-3----|
E--------------------------0----|-1---1----3--3---*4--4------------|------|
                               (*this progression is a little cracked
out)
                                         listen for the rhythm


e----------------------------|-------------------------------|------------|
B-1----1----1----------------|-------------------------------|------------|
G-----------------3-----2----|-0---0----0----0---------------|------------|
D----------------------------|--------------------3-----2----|-0---0------|
A-3----3----3-----1-----0----|-------------------------------|------------|
E----------------------------|-3---3----3----3----1-----0----|------------|

e----------------------|-----------------------------------|--------------|
B----------------------|------------------------------0----|--1---1-------|
G----------------------|-----------0--0----1--1----3-------|--------------|
D-0----0----0-----2----|--3---3----------------------------|--------------|
A----------------------|---------------------------1--2----|--3---3-------|
E-----------------0----|--1---1----3--3----4--4------------|--------------|
                                            (cracked
out)


e-----------------0----|--3--3----3----3-----1----0----|------------------|
B-1----1----3----------|-------------------------------|--3--3----3-------|
G----------------------|--0--0----0----0---------------|------------------|
D-----------0-----2----|---------------------3----2----|--0--0----0-------|
A-3----3---------------|-------------------------------|------------------|
E----------------------|-------------------------------|------------------|

e---------------|----------------------------|----------------|
B-3----3----3---|-----------------------0----|--1-------------|
G---------------|----------0----1--1---------|----------------|
D-0----0----0---|--3--3----------------------|----------------|
A---------------|-----------------------2----|--3-------------|
E---------------|--1--1----3----4--4---------|----------------|


this passage is followed by crazy chords, which is madness
..you can try with an octave pedal..

AND HERE IS THE SOLO


  u can play the solo in perfect octave formation
   which will give it a full harmonic effect

e|-------0----1------3-----1----0----|---------------|
B|--1--------------------------------|--3------------|
G|-------------------0---------------|---------------|
D|-------2----3------------3----2----|--0------------|
A|--3--------------------------------|---------------|
E|-----------------------------------|---------------|


e|-------0----1----3-----1----0-----|------------------|
B|--3-------------------------------|----1-------------|
G|-----------------0----------------|------------------|
D|--0----2----3----------3----2-----|------------------|
A|----------------------------------|------------------|
E|----------------------------------|----1-------------|

e|---------------0----1----3-----1----0------|
B|--1-------3--------------------------------|
G|--------------------0----2-----0-----------|
D|----------2----3--------------------3------|
A|--3----------------------------------------|
E|-------------------------------------------|


e|---------------|--0----1----3----5-----3-----1-----|-------------------|
B|--3------------|-----------------------------------|--1----------------|
G|---------------|------------0----------0-----------|-------------------|
D|--0------------|--2----3---------7-----------3-----|-------------------|
A|---------------|-----------------------------------|-------------------|
E|---------------|-----------------------------------|--1----------------|

or
you can play just the low notes, (the bass movement) notes
e.g


/---------------------etc--/e--- ~
/---------------------etc--/B--- ~
/-----------------0---etc--/G--- ~
/------2---3----------etc--/D -- ~
/--3------------------etc--/A -- ~
/------------------------------- ~E  ~  etc. etc.
Suggest correction
Give kudos to tab author, rate the tab!
1 2 3 4 5
comments
print report bad tab
guest
You may want to rate the tab now too:
select rating
Wanna post a correction for this tab? Suggest correction