Oops, an error
Loading. Please wait.

Drowned World Substitute For Love Chords

13,402 views 24 this week
2 commentsread comments
1 2 3 4 5
accurate
x 9
add to favorites
launch autoscroll
font size
0
reset
transpose
0
reset
display chords
guitar tuner
Autoscroll
slow
fast
+/-
esc
set tempo
stop
Help us to improve Ultimate-Guitar.com Take our survey!
×
B
I traded fame for love
C#m
Without a second thought
   A
It all became a silly game
           E
Some things cannot be bought
B
Got exactly what I asked for
C#m
Wanted it so badly
A
Running, rushing back for more
E			B	      C#m
I suffered fools so gladly
        A	        E
And now I find
B
I've changed my mind

B	         C#m
The face of you
		        A
My substitute for love
		        E
My substitute for love
B		        C#m
Should I wait for you
		         A
My substitute for love
		         E	  B	C#m	A	E
My substitute for love

  B
I travelled round the world
C#m
Looking for a home
  A
I found myself in crowded rooms
E
Feeling so alone
B
Had so many lovers
         C#m
Who settled for the thrill
     A
Of basking in my spotlight
E	        E
I never felt so happy

B	         C#m
The face of you
		        A
My substitute for love
		        E
My substitute for love
B		        C#m
Should I wait for you
		         A
My substitute for love
		         E	  B	C#m	  A	E	B
My substitute for love

C#m		A		E
Mmmm..........

      B
No famous places, far-off places
C#m
Trinkets I can buy
      A
No handsome stranger, heady danger
E
Drug that I can try
      B
No ferris wheel, no heart to steal
      C#m
No laughter in the dark
      A
No one-night-stand, no far-off land
      E
No fire that I can spark

C#m		A		E
Mmm-mmm-mmm-mmm-mmm

B	         C#m
The face of you
		        A
My substitute for love
		        E
My substitute for love
B		        C#m
Should I wait for you
		         A
My substitute for love
		         E	  B	C#m	  A	E	B
My substitute for love

B
And now I find

I've changed my mind
N.C.
This is my religion
Suggest correction
comments
print report bad tab
2 comments total.
0 reply
aoliferchik 71 wrote on December 5 2014, 04:08 am

Thank you!

0 reply
clarissambcia 10 wrote on April 6 2015, 11:09 am

The second time she sings the chorus, there's a little solo going on. I think it sound good if you do it like this:
B C#m A
E|------------|------------|------------|------------|------------|
B|---4---4----|---4---4----|---5---5----|---5---5----|---5---5----|
G|-----4---4--|-----4---4--|-----6---6--|-----6---6--|-----6---6--|
D|------------|------------|------------|------------|------------|
A|-2----------|-2----------|-4----------|-4----------|-7----------|
E|------------|------------|------------|------------|------------|

E
E|------------|------------|------------|
B|---5---5----|------------|------------|
G|-----6---6--|---9---9----|---9---9----|
D|------------|-----9---9--|-----9---9--|
A|-7----------|-7----------|-7----------|
E|------------|------------|------------|

If anyone got any correction, please add!

guest
You may want to rate the tab now too:
select rating
Please do not post tabs as comments. Select "correction" instead!