Oops, an error
Loading. Please wait.

Hollywood Tab

version 1
version 1

Whole song

Interactive

20,833 views 36 this week
1 commentread comment
1 2 3 4 5
accurate
x 10
add to favorites
launch autoscroll
font size
0
reset
how to read this tab
guitar tuner
Autoscroll
slow
fast
+/-
esc
set tempo
stop
Help us to improve Ultimate-Guitar.com Take our survey!
×
Contributor
nazeric 651
Madonna – Hollywood

Tabbed by : nazeric

Intro/Verse/Chorus (Let’s just say that this is played throughout
the whole song ok?)(Listen for timing too)(and o yea, Standard tuning)

|------------------------------|
|-------3--------3-------------|
|-----4--------2-------4-----4-|
|---4--------2-----------------|
|-2--------0---------5-----5---|
|------------------3-----0-----|

“Check it out…” onwards              except “This bird…”
|-------------------------------| |-----------------------------------|
|-----5-------------------2-----| |-----5-----------------------------|
|-------6-----9-------6-----2---| |-------6-----9-----6-----6-------2-|
|---6-------9---9-------------2-| |---6-------9---9---------------2---|
|-4-------7---------7-----------| |-4-------7-------------7-----------|
|-----------------5-----2-------| |-----------------5---5-----2-2-----|

yay! Whew! That was hard =p

Comments? : naz_eric@yahoo.com
comments
print report bad tab
1 comment total.
+2 reply
Weirdo86 13 wrote on May 21 2004, 12:00 am

I think the intro is a bit different, this way it's also easier to play ;) but maybe I'm wrong.

E---------------------------------------
H--------3---------3-------0---------0--
G------4---------2--------0--------------
D----4---------0------------------0----
A--2---------0-------------------------
E----------------------3-------0--------

I want to post or [tab]
guest
You may want to rate the tab now too:
select rating
Please do not post tabs as comments. Select "correction" instead!