Oops, an error
Loading. Please wait.

Hung Up Tab

version 1
version 1

Whole song

Interactive

by Madonna
9,374 views 3 this week
5 commentsread comments
1 2 3 4 5
x 6
add to favorites
launch autoscroll
font size
0
reset
how to read this tab
guitar tuner
Autoscroll
slow
fast
+/-
esc
set tempo
stop
Hi ! this is the main riff in the song , 
Enjoy! 

e------------10--10-----------------------10--10-------------------------|
B---------10--------10-----------------10--------10----------------10~---|
G------10--------------10-----------10--------------10-----9-10-12-------|
D---12--------------------12~----12---------------------12---------------|
A------------------------------------------------------------------------|
E------------------------------------------------------------------------|

e-----------13--13/12--------------------12--10-------------------------|
B--------13-----------13--------------13--------10----------------------|
G-----14-----------------14~-------14--------------10-------------------|
D--15---------------------------14--------------------12~---------------|
A-----------------------------------------------------------------------|
E-----------------------------------------------------------------------|

That's it!
Suggest correction
comments
print report bad tab
5 comments total. Showing first comments.
0 reply
andreas5 793 Dec 26, 2005 01:38 AM

I did this!! :P I just forgot that i logged out :( haha lol

+1 reply
buckethead101 130 Feb 03, 2006 02:20 AM

hehehe it's like a sweep picking lick right???? and the bass line goes.


A|-5-5-5-5-55-7-8-8-8-7-8-10-10-10-10-8-7-5

0 reply
FakinHi 10 May 09, 2006 05:36 PM

This NOTHING like the song. For 1 thing, it's on the wrong octave and the notes are all messed up. They aren't even in the right order. Listen to the song closely, please!

guest
Wanna post a correction for this tab? Suggest correction