Oops, an error
Loading. Please wait.

Like A Virgin Bass

version 1
version 1

Whole song

Interactive

by Madonna
19,704 views 36 this week
no commentswrite comment
1 2 3 4 5
x 3
add to favorites
launch autoscroll
font size
0
reset
guitar tuner
×
Best way to learn
"Like A Virgin"
Autoscroll
slow
fast
+/-
esc
set tempo
stop
[Intro]
G|--------------------------------------------------|
D|-4-------4-4--------------------------------------|
A|----6-4-------6-4-6--x16--------------------------|
E|--------------------------------------------------|

[Verse]
G|----------------------------------------------------|
D|-6-6-6-6-6-6-6-6--6-6-6-6-6-6-6---------------------|
A|-------------------------------------------6--------|     
E|----------------------------------------------------|

[Chorus 1]
G|----------------------------------|
D|-4-------4-4----------------------|
A|----6-4-------6-4-6---------------| (x6)
E|----------------------------------|

[Bridge]
G|-----------------------------------------------------------------------------------------------------------|
D|-6-6-6-6-6-6-6-6--4-4-4-4-4-4-4-4--6-6-6-6-6-6-6-6--4-4-4-4-4-4-4-4----------------------------------------|
A|------------------------------------------------------------------------------------------4-4-4-4-4-4-4-6--|
E|-----------------------------------------------------------------------------------------------------------|

[Chorus 2]
G|--------------------------------|
D|-4------------4-----------------|
A|----6-4----------6-4-6----------|(x4)
E|--------------------------------|

[Verse]
G|----------------------------------------------------|
D|-6-6-6-6-6-6-6-6--6-6-6-6-6-6-6---------------------|
A|-------------------------------------------6--------|
E|----------------------------------------------------|

[Chorus 3]
G|-----------------------------------|
D|-4-------4-4-----------------------|
A|----6-4-------6-4-6----------------|              (x6)
E|-----------------------------------|

[Verse]
G|----------------------------------------------------|
D|-6-6-6-6-6-6-6-6--6-6-6-6-6-6-6---------------------|
A|-------------------------------------------6--------|
E|----------------------------------------------------|

[Chorus 4]
G|------------------------------------|
D|-4-------4-4------------------------|
A|----6-4-------6-4-6-----------------|(x6)
E|------------------------------------|

G|-----------------------------------------------------------------------------------------------------------|
D|-6-6-6-6-6-6-6-6--4-4-4-4-4-4-4-4--6-6-6-6-6-6-6-6--4-4-4-4-4-4-4-4----------------------------------------|
A|------------------------------------------------------------------------------------------4-4-4-4-4-4-4-6--|
E|-----------------------------------------------------------------------------------------------------------|

[Chorus 5]
G|--------------------------------|
D|-4------------4-----------------|
A|----6-4----------6-4-6----------|        (x2)
E|--------------------------------|

G|--------------------------------|
D|-4-------4-4--------------------|
A|----6-4-------6-4-6-------------|           (x2)
E|--------------------------------|

[Verse]
G|----------------------------------------------------|
D|-6-6-6-6-6-6-6-6--6-6-6-6-6-6-6---------------------|
A|-------------------------------------------6--------|      
E|----------------------------------------------------|

[Chorus 6]
G|----------------------------------------|
D|-4-------4-4----------------------------|
A|----6-4-------6-4-6---------------------|                   (x2)
E|----------------------------------------|

[Outro]
G|------------------------------------------------|
D|------------------------------------------------|
A|-6-6-6-6-6-6-6-6--------------------------------|       (x3)
E|------------------------4-4-4-4-4-4-4-4---------|

G|-----------------------------------------|
D|-----------------------------------------|
A|-6-6-6-6-6-6-6-6-------------------------|
E|-----------------------------4--4--4-----|
Suggest correction
Give kudos to tab author, rate the tab!
1 2 3 4 5
comments
print report bad tab
guest
You may want to rate the tab now too:
select rating
Wanna post a correction for this tab? Suggest correction