Oops, an error
Loading. Please wait.

Reflejada Tab

5 views 1 this week
no commentswrite comment
1 2 3 4 5
3 more votes to show rating
add to favorites
launch autoscroll
font size
0
reset
how to read this tab
guitar tuner
Autoscroll
slow
fast
+/-
esc
set tempo
stop
No sé si estos serán realmente arpegios
pk me suenan más a un punteos pero en fin,
la cosa va así:


Arp1:

E||--------------------------------------------------||
B||--------------------------------------------------||
G||------13--16--13----------------------------------||
D||----------------------14--16--14----------14------||
A||--0---------------0------------------16----0---0--||
E||--------------------------------------------------||


Arp2:

E||------2---0---2-----------------2---0---2-----------------2---0-----||
B||--3----------------3---0---3-----------------3---0---3--------------||
G||--------------------------------------------------------------------||
D||--------------------------------------------------------------------||
A||--------------------------------------------------------------------||
E||--------------------------------------------------------------------||


--------------------------------------------------

Arp1   (4 veces)


Arp1 Arp1    Arp1
  Uh... largas alas,
Arp1      Arp1            Arp1      Arp1   Arp1
  la llevan lejos a buscar una cascada

Arp1 (dos veces)


Arp1    Arp1        Arp1
  Van... entre plantas
Arp1        Arp1         Arp1     Arp2
  mira el agua, el reflejo suyo vio
Arp1    Arp1
  Uh ah ah...

Arp1 (dos veces)


Arp1   Arp1        Arp1
  Uh... néctar de agua,
Arp1        Arp1           Arp1         Arp1  Arp1
  mueve corrientes en el fondo de mi alma


Arp1   Arp1      Arp1
  Uh... pura y clara
Arp1           Arp1      Arp1       Arp2
  maneja el aire ke me trae tu mirar
        Arp1
  Uh ah ah...

Arp1 (tres veces)


Arp1   Arp1       Arp1  Arp1
  Uh... néctar de agua,
Arp1   Arp1       Arp1  Arp1
  Uh... néctar de agua...

Arp1 (dos veces)  D            (ese D sólo las tres primeras)


----------------------------------------------
"lo más terrible se aprende en seguida
y lo hermoso nos cuesta la vida" (Silvio)
Suggest correction
Give kudos to tab author, rate the tab!
1 2 3 4 5
comments
print report bad tab
guest
Wanna post a correction for this tab? Suggest correction