Oops, an error
Loading. Please wait.

Baut Wieder Auf Tab

1,538 views 3 this week
no commentswrite comment
1 2 3 4 5
please rate
add to favorites
launch autoscroll
font size
0
reset
how to read this tab
guitar tuner
Autoscroll
slow
fast
+/-
esc
set tempo
stop
Help us to improve Ultimate-Guitar.com Take our survey!
×
Author
Difficulty
Tuning
novice
D A D G B E
Tabbed by: Kevin Haake


Madsen - Baut wieder auf

 Tuning:DADGBe

Intro
e|------------|------------|
H|------------|------------|     (2x)
G|------------|------------|   
D|0-0-0-0-0-0-|0-0-0-0-0-0-|
A|0-0-0-0-0-0-|0-0-0-0-0-0-|
D|0-0-0-0-0-0-|0-0-0-0-0-0-|
  pm....

e|------------|------------|
H|------------|------------|     
G|------------|------------|   
D|0-0-0-0-0-0-|0-3-0-3-0-3-|
A|0-0-0-0-0-0-|0-3-0-3-0-3-|
D|0-0-0-0-0-0-|0-3-0-3-0-3-|
  pm...........]

e|-----|
H|-----|    
G|-----|  
D|0-0-0|
A|0-0-0|
D|0-0-0|

Strophe

e|--------------------|
H|--------------------|      (2x)
G|--------------------|
D|0----8----5----3----|
A|0-x8-8-x8-5-x8-3-x8-|
D|0----8----5----3----|
  pm..................]


Refrain

 Baut wieder auf... 
e|------------|------------|------------|------------|
H|------------|------------|------------|------------|   (2x)
G|------999-77|------999-77|------999-77|------999-77|
D|------xxx-xx|------xxx-xx|------xxx-xx|------xxx-xx|
A|------777-55|8-8-8-777-55|5-5-5-777-55|3-3-3-777-55|
D|0-0-0-------|8-8-8-------|5-5-5-------|3-3-3-------|

Strophe

Refrain 

Bridge

Baut das Schöne und das Fremde..
e|-----------|------------|-------------------------|
H|-----------|------------|-------------------------|   
G|-----------|------------|-------------------------|
D|0-000000---|00--765-----|-0-----------0-----------|
A|0-000000x4-|00--765-----|-0-x6-35353--0-x6-57575--|
D|0-000000---|00--765-----|-0----35353--0----57575--|
    pm....]   pm]           

e|-----------|-----------|
H|-----------|-----------|
G|-----------|-----------|
D|00--756----|00--765----|
A|00--756----|00--765----|
D|00--765----|00--765----|
  pm]         pm] 


e|----------------|
H|----------------|
G|----------------|
D|0000000000--765-|
A|0000000000--765-|
D|0000000000--765-|
  pm.......]

Refrain!

End on 

e|----------------|
H|----------------|
G|----------------|
D|-0--------------|
A|-0--------------|
D|-0--------------|

Das war's auch schon. :)
Suggest correction
Give kudos to tab author, rate the tab!
1 2 3 4 5
comments
print report bad tab
guest
You may want to rate the tab now too:
select rating
Please do not post tabs as comments. Select "correction" instead!