Oops, an error
Loading. Please wait.

Du Schreibst Geschichte Tab

version 1
version 1

Whole song

Interactive

25,662 views 21 this week
1 commentread comment
1 2 3 4 5
accurate
x 4
add to favorites
launch autoscroll
font size
0
reset
how to read this tab
guitar tuner
Autoscroll
slow
fast
+/-
esc
set tempo
stop
Help us to improve Ultimate-Guitar.com Take our survey!
×
Difficulty
intermediate
-----------------------------------------------------------------------------
                   Du Schreibst Geschichte - Madsen
-----------------------------------------------------------------------------
Tabbed by: Roquen 
E-mail: roquen@lycos.de
Homepage: www.germanyroquet.de.gg

Tuning: E A D G H e 


A Teil/Part:

e|--8--8----8--8----8--8----8--8-----------------------|
H|--9--9----8--8----9--9----11-11----------------------|        (4x)
G|--10-10---10-10---10-10---10-10----------------------|   
D|--10-10---10-10---10-10---10-10----------------------|
A|--8--8----8--8----8--8----8--8-----------------------|
E|-----------------------------------------------------|


B Teil:

C# C#    D#  D#


A Teil/Part (3x)


B Teil/Part


C Teil/Part:

e|--8--8----8--8----8--8----8--8------------------------|
H|--9--9----8--8----9--9----9--9------------------------|
G|--10-10---10-10---10-10---10-10-----------------------|
D|--10-10---10-10---10-10---10-10-----------------------|
A|--8--8----8--8----8--8----8--8------------------------|
E|------------------------------------------------------|


D Teil/Part (Bridge):

C# c# c# c#    Cm  Cm  Cm  Cm    fm  fm  fm  fm  fm  fm  fm  fm 

C# C# C# C#    Cm  Cm  Cm  Cm    A#m A#m A#m A#m    C  C  C  C  C


E Teil/Part Refrain/Chorus:

fm  fm  fm  fm  fm  fm  fm  fm  fm  fm  fm  fm  fm  fm  fm  fm  

C#  C#  C#  C#  C#  C#  C#  C#  C#  C#  C#  C#  C#  C#  C#  C#  

d#  d#  d#  d#  d#  d#  d#  d#  d#  d#  d#  d#  d#  d#  d#  d#  

fm  fm  fm  fm  fm  fm  fm  fm  fm  fm  fm  fm  fm  fm  fm  fm  

fm  fm  fm  fm  fm  fm  fm  fm  fm  fm  fm  fm  fm  fm  fm  fm  

C#  C#  C#  C#  C#  C#  C#  C#  C#  C#  C#  C#  C#  C#  C#  C#  

d#  d#  d#  d#  d#  d#  d#  d#  d#  d#  d#  d#  d#  d#  d#  d#

d#  d#  d#  d#  d#  d#  d#  d#  d#  d#  d#  d#  d#  d#  d#  d#


F Teil/Part Outro:

A Teil/ Part (1x)+

e|--8--8----8--8----8----~-------------------------------|
H|--9--9----8--8----9----~-------------------------------|
G|--10-10---10-10---10---~-------------------------------|
D|--10-10---10-10---10---~-------------------------------|
A|--8--8----8--8----8----~-------------------------------|
E|-------------------------------------------------------|


| /  slide up
| \  slide down
| h  hammer-on
| p  pull-off
| ~  vibrato
| +  harmonic
| x  Mute note


Songtext/Lyrics:

Weil die Welt sich so schnell dreht, 
weil die Zeit so schnell vergeht, 
kommst Du nicht hinterher. 
Weil die Hektik sich nicht legt, 
Du in der Masse unter gehst, 
bist du ein Tropfen im Meer. 

Bridge: 
Doch du lebst länger als ein Leben lang. 
Du bist das womit alles begann. 

Refrain: 
Denn du schreibst Geschichte. 
Mit jedem Schritt, 
mit jedem Wort setzt Du sie fort. 
Du schreibst Geschichte an jedem Tag, 
denn jetzt und hier bist du ein Teil von ihr. 

Weil ein Monster vor Dir steht, 
dir bedrohlich in die Augen sieht, 
bist Du lieber still. 
Weil jeder Dir erzählt wer Du bist 
und was Dir fehlt, 
vergisst Du was du sagen willst. 

Bridge: 
Doch du lebst länger als ein Leben lang. 
Du bist das womit alles begann. 

Refrain: 
Denn du schreibst Geschichte. 
Mit jedem Schritt, 
mit jedem Wort setzt Du sie fort. 
Du schreibst Geschichte an jedem Tag, 
denn jetzt und hier bist du ein Teil von ihr. 

Weil Du nur einmal lebst, 
willst Du das sich was bewegt bevor Du gehst, 
bevor Du gehst. 

===============================================================================
Copyright: Roquen 2006
Suggest correction
comments
print report bad tab
1 comment total.
0 reply
way2mash4u 10 wrote on July 28 2009, 10:35 am

das hätte man aber auch schöner machen können.

guest
You may want to rate the tab now too:
select rating
Wanna post a correction for this tab? Suggest correction