Oops, an error
Loading. Please wait.

Jeder Fr Jeden Tab

399 views 1 this week
no commentswrite comment
1 2 3 4 5
please rate
add to favorites
launch autoscroll
font size
0
reset
how to read this tab
guitar tuner
Autoscroll
slow
fast
+/-
esc
set tempo
stop
Help us to improve Ultimate-Guitar.com Take our survey!
×
Author
Hey

Also... es ist mein erster Versuch... Kommentare, Vorschläge, einfach posten!
Ich hab das mit Hilfe von den Akkorden der anderen von Ultimate-Guitar gemacht ^^
Nur beim Solo bin ich mir nicht ganz sicher... :/

Intro
e|-0---0---0-------------0---0--0-----------|
B|--0---0---0-4---4---4---0---0--0-4---4----|
G|---1---1-----4---4---4---1---1----4---4---|
D|--------------4---4----------------4---4--|
A|------------------------------------------|
E|------------------------------------------|

Strophe 1
e|---0---0---0-------------|                          |0---0--0-------------|
B|4---0---0---0-4---4---4--|                          |-0---0--0-4---4---4--|
G|-4---1---1-----4---4---4-|                          |--1---1----4---4---4-|
D|----------------4---4----|                          |------------4---4----|
A|-------------------------|                          |---------------------|
E|-------------------------|                          |---------------------|
   Dein größter Feind ist in dich verliebt, der Soldat hat keine Lust mehr auf Krieg

e|------------0---0---0---------------------|
B|-2---2---2---0---0---0-2---2---2--4---4---|
G|--2---2---2---1---1-----2---2---2--4---4--|
D|---2---2-----------------2---2------4---4-|
A|------------------------------------------|
E|------------------------------------------|
   Wenn du fällst, dann fall' ich mit


Gleiches Muster für Strophe 2

Der Türsteher lässt alle Menschen rein
Der Politiker will nur noch ehrlich sein
Wenn du glücklich bist dann freu' ich mich für dich

Refrain
e|4--0---0---0-------------------------------|
B|-4--0---0---0-4---4---4--4---4--4--4--4----|
G|-----1---1-----4---4---4--5---5--5--4--4---|
D|----------------4---4------5---5-----4--4--|
A|-------------------------------------------|
E|-------------------------------------------|
  Es ist jeder für jeden, denn alle sind eins

e|4--0---0---0----------------------------|
B|-4--0---0---0-4---4---4--4---4--4-------|
G|-----1---1-----4---4---4--5---5--5--4---|
D|----------------4---4------5---5-----5--|
A|--------------------------------------5-|
E|----------------------------------------|
  Es ist jeder für jeden, denn keiner bleibt allein

e|----------------------------------------------------|
B|--------2---2---2--2---2---2--4---4---4--4---4---4--|
G|-4---4---2---2---2--2---2---2--4---4---4--4---4---4-|
D|--5---5---2---2------2---2------4---4------4---4----|
A|---5------------------------------------------------|
E|----------------------------------------------------|
  Es könnte so einfach sein, es könnte so einfach sein, woah...

Instrumental = Intro
e|-0---0---0-------------0---0--0-----------|
B|--0---0---0-4---4---4---0---0--0-4---4----|
G|---1---1-----4---4---4---1---1----4---4---|
D|--------------4---4----------------4---4--|
A|------------------------------------------|
E|------------------------------------------|


Strophe 3 & 4 gleiches Muster wie oben

Die Therapeutin hat nichts zu tun
die Polizistin darf sich ausruhen
Jeder hat genug und gibt den anderen was ab

Der Park ist voll, das Gefängnis leer
Es gibt keine Fänger und Gefangenen mehr
Hab ich dir heute schon gesagt, wie sehr ich dich mag?


Refrain nicht gezupft...
         E         H          C#m       H
Es ist jeder für jeden, denn alle sind eins
         E         H        C#m             G#m
Es ist jeder für jeden und keiner bleibt allein
               A                         H
Es könnte so einfach sein, es könnte so einfach sein, woah


Solo
(wer hierfür Vorschläge hat, posten, dann werde ich es ausbessern)

Brigde = Intro// wieder gezupft


Strophe 5//gezupft, Muster  wie alle anderen Strophen auch ABER anstatt von

   ---------|
   -4---4---|
   --4---4--|   zum Schluss 
   ---4---4-|   gleich H 
   ---------|   strummen
   ---------|

Nur ein Traum, nur eine Idee
Wenn du willst, wenn du verstehst
mach dich bereit, es wird ein langer Weg!

Refrain, nicht gezupft

Auf H enden, ausklingen lassen
Suggest correction
Give kudos to tab author, rate the tab!
1 2 3 4 5
comments
print report bad tab
guest
You may want to rate the tab now too:
select rating
Please do not post tabs as comments. Select "correction" instead!