Oops, an error
Loading. Please wait.

Nachtbaden Bass Tab

version 1
version 1

Whole song

Interactive

13 views 3 this week
no commentswrite comment
1 2 3 4 5
3 more votes to show rating
add to favorites
launch autoscroll
font size
0
reset
guitar tuner
Autoscroll
slow
fast
+/-
esc
set tempo
stop
Help us to improve Ultimate-Guitar.com Take our survey!
×
Author
Difficulty
novice
                             MADSEN - NACHTBADEN

Tabbed by: Rottney (reconssuck)
E-mail: reconssuck@hotmail.de

Artist: Madsen
Song: Nachtbaden
Album: Frieden im Krieg (2008)
Bassist: Niko Maurer


Tuning: Standard (EADG)





[Intro]

G|---------|--------------|-----------------|--------------|----------|
D|---------|--------------|-----------------|--------------|----------|
A|---------|--------------|-----------------|--------------|----------|
E|--5------|--3------5----|--3---5---3---5--|--3------5----|--7-------|

G|---------|----------------|---------|----------------|---------------------------------|
D|---------|----------------|---------|----------------|---------------------------------|
A|---------|----------------|---------|----------------|---------------------------------|
E|--8------|--6---8---6---8-|--5------|--3---5---3--5--|--3-3-3-3-3-3-3-3-3-3-3-3-3-3-3--|


[Chorus] x3

G|--------------------------|------------|--------------|
D|--------------------------|------------|--------------|
A|--------------------------|------------|--------------|
E|--8-8-8-8-8-8-8-8-8-8-8-8-|--1-1-1-1-1-|-3-3-3-3-3-3--|

[End of Chorus]

G|--------------|-------------|
D|--------------|-------------|
A|--------------|-------------|
E|--1-1-1-1-1-1-|-3-3-3-3-3-3-|

[Verse]

G|---------|-----------------|---------|-----------------|----------|
D|---------|-----------------|---------|-----------------|----------|
A|---------|-----------------|---------|-----------------|----------|
E|--5------|--3---5---3---5--|--5------|--3---5---3---5--|--7-------|

G|---------|----------------|---------|----------------|---------------------------------|
D|---------|----------------|---------|----------------|---------------------------------|
A|---------|----------------|---------|----------------|---------------------------------|
E|--8------|--6---8---6---8-|--5------|--3---5---3--5--|--3-3-3-3-3-3-3-3-3-3-3-3-3-3-3--|


[Chorus] x3

G|--------------------------|------------|--------------|
D|--------------------------|------------|--------------|
A|--------------------------|------------|--------------|
E|--8-8-8-8-8-8-8-8-8-8-8-8-|--1-1-1-1-1-|-3-3-3-3-3-3--|

[End of Chorus]

G|--------------|-------------|
D|--------------|-------------|
A|--------------|-------------|
E|--1-1-1-1-1-1-|-3-3-3-3-3-3-|


[Solo Backing]

G|---------|----------------|---------|----------------|
D|---------|----------------|---------|----------------|
A|---------|----------------|---------|----------------|
E|--8------|--6---8---6---8-|--8------|--6---8---6---8-|


[Last Chorus] x3

G|--------------------------|------------|--------------|
D|--------------------------|------------|--------------|
A|--5-5-5-5-5-5-5-5-5-5-5-5-|------------|--------------|
E|--------------------------|--3-3-3-3-3-|-5-5-5-5-5-5--|

[End of last Chorus]

G|--------------|--------------|-----|
D|--------------|--------------|-----|
A|--------------|--------------|--5--|
E|--3-3-3-3-3-3-|--5-5-5-5-5---|-----|


That's all.
Enjoy and Rate.
Suggest correction
Give kudos to tab author, rate the tab!
1 2 3 4 5
comments
print report bad tab
guest
You may want to rate the tab now too:
select rating
Wanna post a correction for this tab? Suggest correction