Oops, an error
Loading. Please wait.

Sirenen tab

version 1
version 1

Whole song

by Madsen
1,351 views 45 this week
no commentswrite comment
1 2 3 4 5
x 3
add to favorites
×
Save as Personal and add changes to this tab that will be seen only by you. Learn more ›
×
You can save this tab as Personal to edit and correct it or add notes. All changes will be seen only by you. Learn more »
launch autoscroll
font size
0
reset
how to read this tab
guitar tuner
edit
Autoscroll
slow
fast
+/-
esc
set tempo
stop
Author
Difficulty
[Intro]

   E                  G E     E                      G)
e|----------------------------------------------------|  
B|----------------------------------------------------|    
G|----------------------------------------------------|  
D|--------------------5-2-----------------------------|
A|------------------5---------------------------------|
E|--0--0--3p0-0--5-7----------0--0--3p0-0--6p5-3-5~-3-|

  (E                  G E     E              A  G
e|----------------------------------------------------|  
B|----------------------------------------------------|    
G|----------------------------------------------------|  
D|--------------------5-2--------------------7--5-----|
A|------------------5------------------------7--5-----|
E|--0--0--3p0-0--5-7----------0--0--3p0-0-0--5--3-----|


[Verse 1]

(palm muted)
  (E)
e|--------------------------|
B|--------------------------|
G|--------------------------|
D|--------------------------|
A|-5--5-5-5h7--7--5-5--5h7--|(x2)
E|--------------------------|
                                            D                     A     A\G
Wasserwerfer, Tränengas; Alles viel zu weit weg, keine Welt so perfekt.


(palm muted)
  (E)
e|--------------------------|
B|--------------------------|
G|--------------------------|
D|--------------------------|
A|-5--5-5-5h7--7--5-5--5h7--|(x2)
E|--------------------------|
                                                        D
Mord und Todschlag Menschenhass, kein großes Thema für dich,
                   A                           B
betrifft dich auch nicht, hast du bist jetzt gedacht.


[Chorus]

               C                     G
Hörst du die Sirenen? Sie singen ein Lied.
                 D                         B   
Wir sind hier drinnen und draußen herrscht Krieg.
                C                     G
Hörst du die Sirenen? Sie weinen für dich.
                    D                       B
Ich kann's nicht verstehen, sag mir: Warum hörst du sie nicht?
             

[Main Riff]

   E                  G E     E                      G)
e|----------------------------------------------------|  
B|----------------------------------------------------|    
G|----------------------------------------------------|  
D|--------------------5-2-----------------------------|
A|------------------5---------------------------------|
E|--0--0--3p0-0--5-7----------0--0--3p0-0--6p5-3-5~-3-|

  (E                  G E     E              A  G
e|----------------------------------------------------|  
B|----------------------------------------------------|    
G|----------------------------------------------------|  
D|--------------------5-2--------------------7--5-----|
A|------------------5------------------------7--5-----|
E|--0--0--3p0-0--5-7----------0--0--3p0-0-0--5--3-----|


[Verse 2]

E                                     D                    A     A\G
Panzer und Pistolen, nur ein Bild in HD, Lebensechter denn je.
E                                                   D               
Am Himmel fliegen Drohnen, bringen die Post vor die Tür,
                    A             B
machen ein Foto von dir. Und du denkst, du bist frei, du bist frei.


[Chorus]

               C                     G
Hörst du die Sirenen? Sie singen ein Lied.
                 D                         B   
Wir sind hier drinnen und draußen herrscht Krieg.
                C                     G
Hörst du die Sirenen? Sie weinen für dich.
                    D                       B
Ich kann's nicht verstehen, sag mir: Warum hörst du sie nicht?


Bridge:

D E (x4)

e|---------------|---------------------------------|---------------------------|-------------------|
B|---------------|---------------------------------|---------------------------|-------------------|
G|---------------|---------------------------------|---------------------------|-------------------|
D|---------------|-------/9-7-5--4b-4b-4b-4b-4b-4b-|-------/9-7-5-4b---4---4-5-|-9-7-5-4h5p4h5p----|
A|-5-7---7/9-7p5-|-5-7-----------------------------|-5-7-----------------5-----|-------------------|
E|---------------|---------------------------------|---------------------------|-------------------|


[Solo]

   D  E  (if you can, bend up)  D  E 
E|-------10/12-12-12-12-12\10-|------------12-----12---------------|
B|----------------------------|-------12h13--12h13--12h13-12-------|
G|----------------------------|-------------------------------12-9-|
D|-12-14----------------------|-12-14------------------------------|
A|-12-14----------------------|-12-14------------------------------|
E|-10-12----------------------|-10-14------------------------------|

   D  E                            D  E           D      E 
E|-------x\-------19-17p15-17----|---------------------------|
B|-------x\---17--------------17-|---------------------------|
G|-------------------------------|---------------------------|
D|-12-14-------------------------|-12-14-7-5-7-5--9~-7-5-----|
A|-12-14-------------------------|-12-14-----------------7-5-|
E|-10-12-------------------------|-10-12---------------------|

   E                       (bend)  E                       A  G 
E|-------------------------------|---------------------------------|
B|-------------------------------|-----------------------------8---|
G|-------------------------------|-------------------------6b----9-|
D|---------5-------5-------7h8p7-|---------5-------5---------------|
A|-7-7-7-7---7-7-7---7-7-7-------|-7-7-7-7---7-7-7---7-7-7---------|
E|-------------------------------|---------------------------------|

    E  (bend the 8 up)  D   E        Hörst       du die Si-
E|------------------------|----10----10----------12~~~~~~~~|
B|-8~-------8--8-----8~---|-12----12----12-10-12-----------|
G|----9-9-------9-9-------|--------------------------------|
D|------------------------|--------------------------------|
A|------------------------|--------------------------------|
E|------------------------|--------------------------------|


[Chorus]

C                     G
-renen? Sie singen ein Lied.
                 D                         B   
Wir sind hier drinnen und draußen herrscht Krieg.
                C                     G
Hörst du die Sirenen? Sie weinen für dich.
                    D                       B
Ich kann's nicht verstehen, sag mir: Warum hörst du sie nicht?


[Main Riff]

   E                  G E     E                      G
e|----------------------------------------------------|  
B|----------------------------------------------------|    
G|----------------------------------------------------|  
D|--------------------5-2-----------------------------|
A|------------------5---------------------------------|
E|--0--0--3p0-0--5-7----------0--0--3p0-0--6p5-3-5~-3-|


[Outro]

A G   E        E


  



Chords:
E (X79997) except in first half of solo
D (X57775) except in first half of solo
A (577655)
B (799877)
C (8 10 10 9 8)
G (355433)



************************************

| h   Hammer-on
| p   Pull-off
| b   Bend full note up and down
| /   Slide up
| \   Slide down
| ~   Wobble bend
| x\  Slide from random note  

************************************

            
            
Suggest correction
Creating personal tab
Creating personal tab
You can edit any tab online and save it as your Personal.

You can edit, replace or remove any tab part or add personal notes – all changes will be seen only by you.

Personal tabs can be accessed anytime from any device, even offline.
Learn more »
Give kudos to tab author, rate the tab!
1 2 3 4 5
comments
print report bad tab
guest
You may want to rate the tab now too:
select rating
Wanna post a correction for this tab? Suggest correction