Oops, an error
Loading. Please wait.

Ready And Waiting To Fall Bass Tab

version 1
version 1

Whole song

Interactive

by Mae
625 views 1 this week
no commentswrite comment
1 2 3 4 5
please rate
add to favorites
launch autoscroll
font size
0
reset
guitar tuner
Tab Pro tools
  • play this tab
  • loop segment
  • change instrument
  • show fretboard
  • metronome
Autoscroll
slow
fast
+/-
esc
set tempo
stop
Contributor
Difficulty
intermediate
Artist: Mae
Bassist: Mark Padgett
Song: Ready And Waiting To Fall
Album: The Everglow
Tabbed By: Lewis [lewis_mason21@hotmail.com]

This song is quite tricky with timing, so make sure you listen to the song hard to get it!

Key:
~: Let Note Ring
h: Hammer-On
p: Pull-Off
/: Slide Up

[Tuning: Eb Standard - Eb,Ab,Db,Gb]


Intro:
Gb|--------------------------------------------------------------------------|
Db|--------------------------------------------------------------------------|
Ab|-------------------33333333-33355555--------------------333---3333--------|
Eb|-33333333-33333333-------------------00000001-22222222-----5~-----5~--2h5-|


Verse One: [x2]
("Drowning just as fast I can" ... "Oh can you feel it yet?")
Gb|--------------------------------------------|
Db|--------------------------------------------|
Ab|----5---5---5---5---5----3---3---3---3---55-|
Eb|-33--33--33--33--33--333--33--33--33--33----|

Gb|-----------------------------------------------|
Db|-----------------------------------------------|
Ab|----3---2---3---2---333--2/555----2/555--------|
Eb|-33--33--33--33--33------------5--------5--2h5-|


Pre-Chorus One:
("It's never been more perfect" ... "I've never been so satisfied")
Gb|------------------------------------------------------------|
Db|----------------8~-12~-10------------------------------7----|
Ab|-5~---7~------------------5~---7~-10~----------10-7-10---5~-|
Eb|-----------8~-------------------------8~--------------------|


Chorus: [x2]
("I could feel something different" ... "Just like I did tonight")
Gb|---------------------------------------------------------------------------|
Db|---------------------------------------------------------------------------|
Ab|-------------------33333333-33335555-------------------33333333--33-55-----|
Eb|-33333333-33333333-------------------00000000-22222222-----------------2h5-|


Post-Chorus: [x2]
Gb|-------------------|
Db|-------------------|
Ab|-333---3333--------|
Eb|----5~-----5~--2h5-|


Verse Two: [x2]
("Spinning around and around" ... "Over and over again")
Gb|--------------------------------------------|
Db|--------------------------------------------|
Ab|----5---5---5---5---5----3---3---3---3---55-|
Eb|-33--33--33--33--33--333--33--33--33--33----|

Gb|-----------------------------------------------|
Db|-----------------------------------------------|
Ab|----3---2---3---2---333--2/555----2/555--------|
Eb|-33--33--33--33--33------------5--------5--2h5-|


Pre-Chorus Two: [Note: A slight variation, listen hard to hear]
("It's never been more perfect" ... "I've never been so satisfied")
Gb|--------------------------------------------------------------|
Db|----------------/10-9-10-12------------------------------7----|
Ab|-5~---7~--------------------5~---7~-10~----------10-7-10---5~-|
Eb|-----------8~---------------------------8~--------------------|


Chorus:
("I could feel something different" ... "Just like I did tonight")
Gb|---------------------------------------------------------------------------|
Db|---------------------------------------------------------------------------|
Ab|-------------------33333333-33335555-------------------33333333--33-55-----|
Eb|-33333333-33333333-------------------00000000-22222222-----------------2h5-| [x2]


Bridge: [Note: Nice bass solo bits here, practice and you'll be able to do it!]
("Ready" ... Waiting to fall")
Gb|-------------------------------------12-11-8-9~--12-11-8-9-------------------------------------|
Db|--------------------------------12~------------------------9-7~--------------------------------|
Ab|-10-7---------7---10-9~--10-12--------------------------------------7----9~----7----9h10p9-----|
Eb|------10-7-10---8------------------------------------------------10---10----10---10--------10~-|

Gb|-----------------------------------12-11-8-9~--12-11-8-9------------------------------------|
Db|------------------------------12~------------------------9-7~-------------------------------|
Ab|-7---------7----10-9~--10-12-------------------------------------7----9~----7----9h10p9-----|
Eb|---10-7-10---8------------------------------------------------10---10----10---10--------10~-|

Gb|------------|
Db|------------|
Ab|-333--3333--|
Eb|----5-----5-|

Final Chorus:
("I could feel something different" ... "Just like I did tonight")
Gb|---------------------------------------------------------------------------|
Db|---------------------------------------------------------------------------|
Ab|-------------------33333333-33335555-------------------33333333--33-55-----|
Eb|-33333333-33333333-------------------00000000-22222222-----------------2h5-|

Gb|---------------------------------------------------------------------------|
Db|---------------------------------------------------------------------------|
Ab|-------------------33333333-33355555-------------------33333333--33-55-----|
Eb|-33333333-33330000-------------------00000000-22222222-----------------2h5-|


Outro: [Note: Add in a few mute notes, and there you have it!]
Gb|------------|
Db|------------|
Ab|-333--3333--|
Eb|----5-----5-|
comments
We did not receive enough feedback on this tab! Please rate:
print report bad tab
1 2 3 4 5
I want to post or [tab]
guest
You may want to rate the tab now too:
select rating
Please do not post tabs as comments. Select "correction" instead!