Oops, an error
Loading. Please wait.

Ready And Waiting To Fall Tab

version 2
version 2

Whole song

Interactive

by Mae
2,470 views 1 this week
1 commentread comment
1 2 3 4 5
please rate
add to favorites
launch autoscroll
font size
0
reset
how to read this tab
guitar tuner
Autoscroll
slow
fast
+/-
esc
set tempo
stop
Help us to improve Ultimate-Guitar.com Take our survey!
×
Author
-------------------------------------------------------------------------------
                             READY AND WAITING TO FALL - Mae
-------------------------------------------------------------------------------
Tabbed by: RLaunch (Richard Simunac)
Email: launch_rocket@yahoo.com

Tuning: Standard

Note: Most of what I have tabbed could go to either guitar. If there's more for the lead
I haven't heard it. This is one of my first tabs (the first was really cruddy) so, I
this is right (not quite sure on the little intro notes, though). It's what I play. Enjoy.

r = 11

Intro

Guitar 1
e|---------------------------------------------------------------------------|
B|---------------------------------------------------------------------------|
G|---------------------------------------------------------------------------|
D|-8888888888888888-999999999999-rb--rb--88888888-66666666-------------------|
A|-xxxxxxxxxxxxxxxx-xxxxxxxxxxxx-x---x---xxxxxxxx-xxxxxxxx-------------------|
E|-6666666666666666-777777777777-9b--9b--66666666-44444444-------------------|

Guitar 2
e|---------------------------------------------------------------------------|
B|---------------------------------------------------------------------------|
G|---------------------------------------/10-r-13-13-r-10--------------------|
D|-8888888888888888-999999999999-rb-rb---------------------------------------|
A|-xxxxxxxxxxxxxxxx-xxxxxxxxxxxx-x---x---------------------------------------|
E|-6666666666666666-777777777777-9b--9b--------------------------------------|

Intro (cont'd)

e|---------------------------------------------------------------------------|
B|---------------------------------------------------------------------------|
G|---------------------------------------------------------------------------|
D|-8888-r-9--8-9-r-9-6-6-rb--------------------------------------------------|
A|-xxxx-x-x--x-x-x-x-x-x-x---------------------------------------------------|
E|-6666/9\7--6/7/9\7\4-4/9b--------------------------------------------------|

Verse (x2)

e|---------------------------------------------------------------------------|
B|---------------------------------------------------------------------------|
G|---------------------------------------------------------------------------|
D|-----8xxxx9xxxxrxxxx9xxxx6-8-8xxxx9xxxxrxxxx9xxxx8-6-----------------------|
A|-----xxxxxxxxxxxxxxxxxxxxx-x-xxxxxxxxxxxxxxxxxxxxx-x-----------------------|
E|-----6xxxx7xxxx9xxxx7xxxx4/6-6xxxx7xxxx9xxxx7xxxx6/4-----------------------|

e|---------------------------------------------------------------------------|
B|---------------------------------------------------------------------------|
G|---------------------------------------------------------------------------|
D|-----8xxxx9xxxxrxxxx9xxxx6-8--8-9-r-9-8-9-r-9-6-8--------------------------|
A|-----xxxxxxxxxxxxxxxxxxxxx-x--x-x-x-x-x-x-x-x-x-x--------------------------|
E|-----6xxxx7xxxx9xxxx7xxxx4/6--6/7/9\7-6/7/9\7-4/6--------------------------|

 Drowning, just as fast as I can. But don't throw me a line, don't reach out your hand.
I'm on the brink of something beautiful and I want to sing about it, but I don't know
to begin. Write it in a letter, but the words don't come out right. Trying to explain 
nobody can do me like. You don't understand how helpless I can get. Since the day that we
Oh can you feel it yet?

Prechorus (x2) - Clean (Feel free to mess around with these notes, because I don't know
exact order)

e|---------------------------------------------------------------------------|
B|---------------------------------------------------------------------------|
G|------r~-----r~----r-------------------------------------------------------|
D|----r~-----r~----r~-r------------------------------------------------------|
A|--9~-----9~----9~----9-----------------------------------------------------|
E|---------------------------------------------------------------------------|

 It's never been more perfect being alive. I've never been so satisfied. Oh...

Chorus (x2)

e|---------------------------------------------------------------------------|
B|---------------------------------------------------------------------------|
G|---------------------------------------------------------------------------|
D|-8888888888888888-999999999999-rb-rb--88888888-66666666-8888-9999-888-r-9-6|
A|-xxxxxxxxxxxxxxxx-xxxxxxxxxxxx-x--x---xxxxxxxx-xxxxxxxx-xxxx-xxxx-xxx-x-x-x|
E|-6666666666666666-777777777777-9b-9b--66666666-44444444-6666/7777-666/9\7\4|

 I could feel something different for the first time. Heaven made sense and all the
rhymed. No chance of stopping now. I'm taking it all. And now I'm caught in the air, its a
glide. Pass it up, wouldn't dare what a wild ride. I remember being ready and waiting to 
Just like I did tonight.

Post-Chorus

e|---------------------------------------------------------------------------|
B|---------------------------------------------------------------------------|
G|---------------------------------------------------------------------------|
D|-8888-r-9--8-9-r-9-6-6-rb-8888-r-9--8-9-r-9-6-6-r-9------------------------|
A|-xxxx-x-x--x-x-x-x-x-x-x--xxxx-x-x--x-x-x-x-x-x-x-x------------------------|
E|-6666/9\7--6/7/9\7\4-4/9b-6666/9\7--6/7/9\7\4-4/9\7------------------------|

Do this when the guitar comes in at the 2nd verse, then go back to the verse tab.

e|---------------------------------------------------------------------------|
B|---------------------------------------------------------------------------|
G|---------------------------------------------------------------------------|
D|-----8-9-r-9-8-9-r-9-6-8---------------------------------------------------|
A|-----x-x-x-x-x-x-x-x-x-x---------------------------------------------------|
E|-----6/7/9\7-6/7/9\7-4/6---------------------------------------------------|

 Spinning around and around. Until my left was my right and up became down. With just
look you knocked me off of my feet. So unable to speak. Oh how you made me weak. Though it
a while ago, I still can recall.
That moment so ready, and waiting to fall. Can you take me back in time remembering when
captured my heart? Over and over again.

Prechorus
Chorus
Guitar don't do nothin' in the bridge ;)

Then, right before the 3rd Chorus, do:

e|---------------------------------------------------------------------------|
B|---------------------------------------------------------------------------|
G|---------------------------------------------------------------------------|
D|--8888-r-9--8-9-r-9-6------------------------------------------------------|
A|--xxxx-x-x--x-x-x-x-x------------------------------------------------------|
E|--6666/9\7--6/7/9\7\4------------------------------------------------------|

Do the chorus again..

..then, end with the riff above.

| /  slide up
| \  slide down
| x  Mute note
===============================================================================
Suggest correction
Give kudos to tab author, rate the tab!
1 2 3 4 5
comments
print report bad tab
1 comment total.
0 reply
RLaunch 165 wrote on March 14 2007, 10:09 am

Some of the lyrics have typos, don't mind those.. I just noticed them.

guest
You may want to rate the tab now too:
select rating
Wanna post a correction for this tab? Suggest correction