Oops, an error
Loading. Please wait.

Sun And The Moon Tab

version 1
version 1

Whole song

by Mae
1,537 views 3 this week
no commentswrite comment
1 2 3 4 5
worth learning
x 4
add to favorites
launch autoscroll
font size
0
reset
how to read this tab
guitar tuner
Autoscroll
slow
fast
+/-
esc
set tempo
stop
Help us to improve Ultimate-Guitar.com Take our survey!
×
Standard Tuning: EADGBE
i think its right...i was listening to it the whole time...
[7:16]
its easy...as crap...but yah...
m4bassist@hotmail.com

dont know when exactly it starts...
intro
e|------6-------------|
B|-------------6------|
G|--------------------|
D|--------------------|
A|--------------------| [[x2]]
E|--------------------|

[[[verse 1]]]
e|------6-------------|      |-------6--------|
B|-------------6------|      |----------------|
G|--------------------|      |----------------|
D|--------------------|[[x4]]|----------------|[[end it with this]]
A|--------------------|      |----------------|
E|--------------------|      |----------------|

then stop for the piano...orchestra thing...

then again...
[[[verse 2]]]
e|------6-------------6------|
B|-------------6-------------|
G|---------------------------|
D|---------------------------|
A|---------------------------|
E|---------------------------|

then the piano thing with the orchestra...wait for him to finish singing...and then wait 
the piano breakdown...
then...

[[[breakdown]]]
hi-hat is playing
e|----------------------6---6--[x2]-|
B|------------------------4---------|you go and find out how many times they
G|-8-->10--<7--<5-->12--------3-----|play the strum notes...
D|----------------------------------|
A|-6-->8---<5--<3-->10--------------| [[x4]]
E|----------------------------------|

[[[breakdown 2nd time]]]
ride cymbol is playing
ending thing changes
e|-7-----|
B|---4---|
G|-------|play the same strum thing but use this ending...
D|-------|
A|-------| [[x4]]
E|-------|

[[breakdown 3rd time]]
crash cymbol is playing
e|----------------------|
B|----------------------|
G|-8-->10--<7--<5-->12--| no solo string ending...
D|-8-->10--<7--<5-->12--|
A|-6-->8---<5--<3-->10--| [[x4]] end with the 10/12/12
E|----------------------|

intro
verse 1
verse 2
verse 3
breakdown 1
breakdown 2
breakdown 3
epilogue...
Suggest correction
comments
print report bad tab
guest
You may want to rate the tab now too:
select rating
Please do not post tabs as comments. Select "correction" instead!